Offspring - Genocide Chords & Tabs

 

Genocide Chords & Tabs

Offspring Chords & Tabs

Version: 4 Type: Tab 0 ratings
1 star 2 stars 3 stars 4 stars 5 stars
comments

Genocide Tab

   
My fav. to play... well, one of...

Guitar 1= STANDARD  EADGBE
Guitar 2= Fourths   EADGCF
                        ^^
Intro:
e:|---------------|------|----------------|-------|---------------|-----|
B:|---------------|------|----------------|-------|---------------|-----|
G:|---------------|------|----------------|-------|---------------|-----|
D:|-5-----------5-|-5--5-|--5-----------5-|-5-----|-3-----------3-|-3-3-|
A:|-5-----------5-|-5--5-|--5-----------5-|-5-----|-3-----------3-|-3-3-|
E:|-3--3-3-3-3--3-|-3--3-|--3--3-3-3-3--3-|-3---0-|-1--1-1-1-1--1-|-1-1-|
PM     *******                 *******                 *******    

e:|-------------------|----------------------------------------------
B:|-------------------|----------------------------------------------
G:|---5------------5--|----5--5--5-----------------------------------
D:|---5------------5--|----5--5--5-----------------------------------
A:|---3---3-3-3-3--3--|----3--3--3-----------------------------------
E:|-------------------|----------------------------------------------
PM        *******                                                     

RIFF:
     G5                                            F5                   
F:|------------------------------------------------0-0-0-0-0:-0--0-0-0-
C:|--X-10-10-10-9-9-10-10-10h12-12-12-10-10-10-9-9-X-9-9-9-9h10-10-9-9-
G:|--0--0--0--0-0-0--0--0--0:----0--0--0--0--0-0-0---------------------
D:|--------------------------------------------------------------------
A:|--------------------------------------------------------------------
E:|--------------------------------------------------------------------
     C5
F:|--X---------------------------------------------------------------
C:|--0--0---0---0---0:----0--0--0------------------------------------
G:|--X--9---9---9---9h10--9--7--9------------------------------------
D:|------------------------------------------------------------------
A:|------------------------------------------------------------------
E:|------------------------------------------------------------------
[ Tab from: http://www.guitartabs.cc/tabs/o/offspring/genocide_tab_ver_4.html ]
PRECHORUS
e:|----------------------------------------------------------------------------
B:|----------------------------------------------------------------------------
G:|--0-0-0-0-0-0-0-0-0-0-0-0-0-0-0-0-0-0-0-0-0-0-0-0-0-0-0-0-0-0-0-0-0-0-0-0-0-
D:|--5-5-5-5-5-5-5-5-5-5-5-5-5-5-5-5-5-5-5-5-5-5-5-5-5-5-5-5-5-5-5-5-5-5-5-5-5-
A:|----------------------------------------------------------------------------
E:|----------------------------------------------------------------------------


CHORUS
C5  C5  C5    C5
One two three four
G5         Bb5
Dog eat dog, every day
F5            C5
On our fellow man we pray
G5         Bb5
Dog eat dog, to get by
F5               C5
Hope you like my genocide

Eb5         C5          C5  C5  D5    D5
OUR TIME IS UP~~~~~~~   ONE TWO THREE FOUR

BRIDGE:   PLAY 3X
e:|-----------------------------------------------------------------
B:|-----------------------------------------------------------------
G:|-----------------------------------------------------------------
D:|---------------------10-10-10-10\--------------------------------
A:|--5-5-5-5--8-8-8-8--8--8--8--8----10-10-10-10--------------------
E:|-3-3-3-3--6-6-6-6----------------8--8--8--8----------------------
PM  *********************************************
THEN
e:|------------------------------------------------------------------
B:|------------------------------------------------------------------
G:|--------------------------10-10-----------------------------------
D:|--5-5----------8-8--------10-10--10-10-10-10-10-------------------
A:|--5-5---5-5-5--8-8--8-8-8--8--8-8--8--8---10-10--10-10-10---------
E:|--3-3--3-3-3---6-6-6-6-6-------------------8--8-8--8--8-----------
PM        ******      *******      **********      *********

e:|------------------------------------------------------------------------
B:|------------------------------------------------------------------------
G:|------------------------------------1010101010101010--------------------
D:|--5-5-5----------8-8-8-8--8-8-8-8-8-1010101010101010-101010101010101010-
A:|--5-5-5---5-5-5--8-8-8-8--8-8-8-8-8--8-8-8-8-8-8-8-8-101010101010101010-
E:|--3-3-3--3-3-3---6-6-6-6--6-6-6-6-6-------------------8-8-8-8-8-8-8-8-8-
PM          ***************************{********}
                                  Gradual Release
OUTR
C5  C5  C5    C5       G5~~~
ONE TWO THREE FOUR


ENJOY!
THIS TAB DONE  BY BOTH STEVO SERACUZZI AND DAN C.
CORRECTIONS COMMENTS ETC: danc_accuratetabs@yahoo.com
MADE FOR Ultimate-Guitar.com   PLEASE REPORT IF STOLEN!!!
Comments