Offspring - Falling Chords & Tabs

 

Falling Chords & Tabs

Offspring Chords & Tabs

Version: 1 Type: Bass Tab 0 ratings
1 star 2 stars 3 stars 4 stars 5 stars
comments

Falling Bass Tab

Re-Tabbed by: Pugs
Offspring-Falling
Q/A: Pugs_113@hotmail.com


Intro. (Just fill the notes in as much as u feel)
G---------------------------------------------------
D---------------------------------------------------
A----------------7------------------7--------------
E--0-0-0-0-0-0---0-0-0-0-0-0-0----------------


Repeats 2x             
G---------------------------------------------------------
D---------------------------------------------------------
A-7-7-7-7-7-7-----------------5-5-5-5-5-5-----------
E-----------------3-3-3-3-3-3--------------------------

Repeats 2x
G-------------------------------------------------------------------
D-------------------------------------------------------------------
A--0-0-0-0-0-0-----------------5-5-5-5-5-5---0-3-2----------
E------------------3-3-3-3-3-3-----------------------------------

Course (falling.....) About the 2 min mark bass stops
G-------------------------------------------------------------------
D-------------------------------------------------------------------
A-7-7-7-7-7-7--3-3-3-3-3-3-----------------5-5-5-5-5-5-----
E---------------------------------3-3-3-3-3-3---------------------
[ Tab from: http://www.guitartabs.cc/tabs/o/offspring/falling_btab.html ]
Solo
G----------------------------------------------------------------------------------------------------
D----------------------------------------------------------------------------------------------------
A-7-7-7-7-7-7----------------5-5-5-5-5-5--7-7-7-7-7-7--3-3-3-3-3-3--5-5-----------------
E----------------3-3-3-3-3-3-------------------------------------------------------0-2-3-3-2--0-

After solo
G-------------------------------------------------------------------------------------------------------
D-------------------------------------------------------------------------------------------------------
A-7-7-7-7-7-7------------------5-5-5-5-5-5--7-7-7-7-7-7--3-3-3-3-3-3--5-5------------------
E-----------------3-3-3-3-3-3--------------------------------------------------------0-2-3-3-2-----


This song is fairly easy, the other tabs are wrong and this is 100% right!
Fill in the bars with eighth notes and you’ll be set!

===========


Author/Artist: Offspring
Title: Falling
Transcribed by: Gabriel Gagné
Email: gabrielgagne@hotmail.com
Comments: This is my first tab.

This is the last riff played by the bass, about 1min 10sec of the end of the song.I don't know if i have the good tuning but it looks like this. 
For the good timing, listen to the song.

G------------------------------------------------------------------------
D------------------------------------------------------------------------
A------------------------------------------------------------------------
E--12-12-12-12-3-3-3-3-10-10-10-10-12-12-12-12-9-9-9-9-11-11-0-0-2-3-2-0-
Comments