Offspring - End Of The Line Chords & Tabs

 

End Of The Line Chords & Tabs

Offspring Chords & Tabs

Version: 1 Type: Tab 0 ratings
1 star 2 stars 3 stars 4 stars 5 stars
comments

End Of The Line Tab

   
Song:  The End Of The Line
Band:  Offspring

Album: Americana (1998)
Track: 9 - 00:00


A: (Intro)
   1 + 2 + 3 + 4 + 1 + 2 + 3 + 4 + 1 + 2 + 3 + 4 + 1 + 2 + 3 + 4 +
E -----------------------------------------------------------------
B -----------------------------------------------------------------
G -----------------------------------------------------------------
D -4-444-4---R---------------------4-444-4---R---------------------
A -4-444-4---R---------------------4-444-4---R---------------------
E -2-222-2---R---------------------2-222-2---R---------------------
   \pm_/                           \pm_/


   1 + 2 + 3 + 4 + 1 + 2 + 3 + 4 + 1 + 2 + 3 + 4 + 1 + 2 + 3 + 4 +
E -----------------------------------------------------------------
B -----------------------------------------------------------------
G ---------------------------------9-9---9---9-9-9-6-6---6---6-6-6-
D -4-444-4---R---------------------9-9---9---9-9-9-6-6---6---6-6-6-
A -4-444-4---R---------------------7-7---7---7-7-7-4-4---4---4-4-4-
E -2-222-2---R-----------------------------------------------------
   \pm_/


   1 + 2 + 3 + 4 + 
E -----------------
B -----------------
G -6-6---6---6-6-6-
D -6-6---6---6-6-6-
A -4-4---4---4-4-4-
E -----------------


A': (Verse)
   1 + 2 + 3 + 4 + 1 + 2 + 3 + 4 + 1 + 2 + 3 + 4 + 1 + 2 + 3 + 4 +
E -----------------------------------------------------------------
B -----------------------------------------------------------------
G -----------------7-7-7-7-------------------------7-7-7-7-9-9-9-9-
D -4-444-4---4-4-4-7-7-7-7-7-7-9-9-4-444-4---4-4-4-7-7-7-7-9-9-9-9-
A -4-444-4---4-4-4-5-5-5-5-7-7-9-9-4-444-4---4-4-4-5-5-5-5-7-7-7-7-
E -2-222-2---2-2-2---------5-5-7-7-2-222-2---2-2-2-----------------
   \pm_/     \pm_______________________/     \pm_________________/

   1 + 2 + 3 + 4 + 1 + 2 + 3 + 4 + 1 + 2 + 3 + 4 + 1 + 2 + 3 + 4 +
E -----------------------------------------------------------------
B -----------------------------------------------------------------
G -----------------7-7-7-7---------9-9---9---9-9-9-6-6---6---6-6-6-
D -4-444-4---4-4-4-7-7-7-7-7-7-9-9-9-9---9---9-9-9-6-6---6---6-6-6-
A -4-444-4---4-4-4-5-5-5-5-7-7-9-9-7-7---7---7-7-7-4-4---4---4-4-4-
E -2-222-2---2-2-2---------5-5-7-7---------------------------------
   \pm_/     \pm_________________/

B: 
   1 + 2 + 3 + 4 + 1
E -------------------
B -------------------
G -6-6-6-6-6-6-6-6---
D -6-6-6-6-6-6-6-6-4-
A -4-4-4-4-4-4-4-4-4-
E -----------------2-

[ Tab from: http://www.guitartabs.cc/tabs/o/offspring/end_of_the_line_tab.html ]
C: (Chorus)
   1 + 2 + 3 + 4 + 1 + 2 + 3 + 4 + 1 + 2 + 3 + 4 + 1 + 2 + 3 + 4 +
E -----------------------------------------------------------------
B -----------------------------------------------------------------
G ---------------------------------9-9---9---9-9-9-----------------
D -4-4---4---4-4-4-7-7---7---7-7-7-9-9---9---9-9-9-9-9---9---9-9-9-
A -4-4---4---4-4-4-7-7---7---7-7-7-7-7---7---7-7-7-9-9---9---9-9-9-
E -2-2---2---2-2-2-5-5---5---5-5-5-----------------7-7---7---7-7-7-


   1 + 2 + 3 + 4 + 1 + 2 + 3 + 4 + 1 + 2 + 3 + 4 + 1 + 2 + 3 + 4 +
E -----------------------------------------------------------------
B -----------------------------------------------------------------
G ---------------------------------9-9---9---9-9-9-6-6---6---6-6-6-
D -4-4---4---4-4-4-7-7---7---7-7-7-9-9---9---9-9-9-6-6---6---6-6-6-
A -4-4---4---4-4-4-7-7---7---7-7-7-7-7---7---7-7-7-4-4---4---4-4-4-
E -2-2---2---2-2-2-5-5---5---5-5-5---------------------------------


C': (Break)
   1 + 2 + 3 + 4 + 1 + 2 + 3 + 4 + 1 + 2 + 3 + 4 + 1 + 2 + 3 + 4 +
E -----------------------------------------------------------------
B -----------------------------------------------------------------
G ---------------------------------9-999-9---9-9-9-----------------
D -4-444-4---4-4-4-7-777-7---7-7-7-9-999-9---9-9-9-9-999-9---9-9-9-
A -4-444-4---4-4-4-7-777-7---7-7-7-7-777-7---7-7-7-9-999-9---9-9-9-
E -2-222-2---2-2-2-5-555-5---5-5-5-----------------7-777-7---7-7-7-
   \pm_/           \pm_/           \pm_/           \pm_/

   1 + 2 + 3 + 4 + 1 + 2 + 3 + 4 + 1 + 2 + 3 + 4 + 1 + 2 + 3 + 4 +
E -----------------------------------------------------------------
B -----------------------------------------------------------------
G ---------------------------------9-999-9---9-9-9-6-666-6---6-6-6-
D -4-444-4---4-4-4-7-777-7---7-7-7-9-999-9---9-9-9-6-666-6---6-6-6-
A -4-444-4---4-4-4-7-777-7---7-7-7-7-777-7---7-7-7-4-444-4---4-4-4-
E -2-222-2---2-2-2-5-555-5---5-5-5---------------------------------
   \pm_/           \pm_/           \pm_/           \pm_/

   1 + 2 + 3 + 4 + 1 + 2 + 3 + 4 + 1 + 2 + 3 + 4 + 1 + 2 + 3 + 4 +
E -----------------------------------------------------------------
B -----------------------------------------------------------------
G ---------------------------------9-999-9---9-9-9-----------------
D -4-444-4---4-4-4-7-777-7---7-7-7-9-999-9---9-9-9-9-999-9---9-9-9-
A -4-444-4---4-4-4-7-777-7---7-7-7-7-777-7---7-7-7-9-999-9---9-9-9-
E -2-222-2---2-2-2-5-555-5---5-5-5-----------------7-777-7---7-7-7-


   1 + 2 + 3 + 4 + 1 + 2 + 3 + 4 + 1 + 2 + 3 + 4 + 1 + 2 + 3 + 4 +
E -----------------------------------------------------------------
B -----------------------------------------------------------------
G ---------------------------------9-999-9---9-9-9-6-666-6---6-6-6-
D -4-444-4---4-4-4-7-777-7---7-7-7-9-999-9---9-9-9-6-666-6---6-6-6-
A -4-444-4---4-4-4-7-777-7---7-7-7-7-777-7---7-7-7-4-444-4---4-4-4-
E -2-222-2---2-2-2-5-555-5---5-5-5---------------------------------



INTRO:
1x A

VERSE:
2x A'

CHORUS:
2x C

VERSE:
1x A'

CHORUS:
2x C

BREAK:
1x B
noise
1x C'

CHORUS:
2x C
1x B



Comments