Offspring - Dirty Magic Chords & Tabs

 

Dirty Magic Chords & Tabs

Offspring Chords & Tabs

Version: 1 Type: Tab 0 ratings
1 star 2 stars 3 stars 4 stars 5 stars
comments

Dirty Magic Tab

Dirty Magic bu The Offspring - submitted by Adam Coltman 2002

Lead Guitar#1

|----------------------------------------------------------------------------------|
|----------------------------------------------------------------------------------|
|----------------------------------------------------------------------------------|
|----------------------------------------------------------------------------------|
|---------------7--------7----------10----------9--------2-----3--------2-----3----|
|-0--0h5--5--5-----5--5-----5/8--8------8/7--7-----7--0-----0-----0--0-----0-----0-|

[ Tab from: http://www.guitartabs.cc/tabs/o/offspring/dirty_magic_tab.html ]
|------------------------------------------------------------------------------------|
|------------------------------------------------------------------------------------|
|------------------------------------------------------------------------------------|
|------------------------------------------------------------------------------------|
|---------------7--------7----------10----------9--------2-----3--------2-----3------|
|-0--0h5--5--5-----5--5-----5/8--8------8/7--7-----7--*0*-----0-----0--0-----0-----0-|


Lead Guitar#2 (starts when #1 hits asterisked 0 on E)  ^^

|-----------------------------------------------------------------------------------------|
|-5(x13)--3--3--3--3/5--5(x10)--3--3--5--5--0--0--3--3--3--3/5--5(x10)--3--3--5--5--0--0--|
|-----------------------------------------------------------------------------------------|
|-----------------------------------------------------------------------------------------|
|-----------------------------------------------------------------------------------------|
|-----------------------------------------------------------------------------------------|
Comments