Offspring - Demons Chords & Tabs

 

Demons Chords & Tabs

Offspring Chords & Tabs

Version: 1 Type: Tab 0 ratings
1 star 2 stars 3 stars 4 stars 5 stars
comments

Demons Tab

   
Song: Demons
Artist: The Offspring
Album: The Offspring
As tabbed by Joe Muggah

// = pick slide

Intro
e---------------------------------------------------------
B---------------------------------------------------------
G-----------7-------------------------10-10-10--9-9-9--7--
D--//---9---7---9--9m-9m-9m-9m-9m-9m--10-10-10--9-9-9--7--
A--//---9---5---9--9m-9m-9m-9m-9m-9m---8--8--8--7-7-7--5--
E-------7-------7--7m-7m-7m-7m-7m-7m----------------------

(continued)
e---------------------------------------------------------
B---------------------------------------------------------
G--7m-7m-7m-7m-7m-7m--10-10-10--9-9-9--7------------------
D--7m-7m-7m-7m-7m-7m--10-10-10--9-9-9--7------------------
A--5m-5m-5m-5m-5m-5m---8--8--8--7-7-7--5------------------
E---------------------------------------------------------

Chorus 
e---------------------------------------------------------
B---------------------------------------------------------
G------------------10-10-10--9-9-9--7--7-7-7-7-7-7-7------
D--9--9-9-9-9-9-9--10-10-10--9-9-9--7--7-7-7-7-7-7-7------
A--9--9-9-9-9-9-9---8--8--8--7-7-7--5--5-5-5-5-5-5-5------
E--7--7-7-7-7-7-7-----------------------------------------

(continued)
e---------------------------------------------------------
B---------------------------------------------------------
G--10-10-10--9-9-9--7-------------------------------------
D--10-10-10--9-9-9--7-------------------------------------
A---8--8--8--7-7-7--5-------------------------------------
E---------------------------------------------------------

Riff A (Guitar 1)
e---------------------------------------------------------
B---------------------------------------------------------
G-----------------------------9-9-9-9-9-9--7-7-7-7-7-7----
D--9-9-9-9-9-9-9-9-9-9-9-9-9--9-9-9-9-9-9--7-7-7-7-7-7----
A--9-9-9-9-9-9-9-9-9-9-9-9-9--7-7-7-7-7-7--5-5-5-5-5-5----
E--7-7-7-7-7-7-7-7-7-7-7-7-7------------------------------

Riff B (Guitar 2)
e--2-2-2-2-2-2--3-3--5-5-5--0-0-0-0-0-0--3-3-3-3--2-------
B--0-0-0-0-0-0--0-0--0-0-0--0-0-0-0-0-0--0-0-0-0--0-------
G---------------------------------------------------------
D---------------------------------------------------------
A---------------------------------------------------------
E---------------------------------------------------------

Verse
e---------------------------------------------------------
B---------------------------------------------------------
G--------------5-5--5-5-5--4-4--4-4-4---------------------
D--7-7--7-7-7--5-5--5-5-5--4-4--4-4-4--4-4--4-4-4---------
A--7-7--7-7-7--3-3--3-3-3--2-2--2-2-2--4-4--4-4-4---------
E--5-5--5-5-5--------------------------2-2--2-2-2---------

(continued)
e---------------------------------------------------------
B---------------------------------------------------------
G--------------5-5--5-5-5--4-4--4-4-4--4-4--4-4-4---------
D--7-7--7-7-7--5-5--5-5-5--4-4--4-4-4--4-4--4-4-4---------
A--7-7--7-7-7--3-3--3-3-3--2-2--2-2-2--2-2--2-2-2---------
E--5-5--5-5-5---------------------------------------------
[ Tab from: http://www.guitartabs.cc/tabs/o/offspring/demons_tab.html ]
Fill 1
e--5--7-7--7----------------------------------------------
B--5--7-7--7----7p5---------------------------------------
G--------------------h6-----4^----------------------------
D-----------------------h7--------------------------------
A---------------------------------------------------------
E---------------------------------------------------------

Fill 2
e--14----13----12----11----10----9----8---7---------------
B-----15----14----13----12----11---10---9---8-------------
G---------------------------------------------------------
D---------------------------------------------------------
A---------------------------------------------------------
E---------------------------------------------------------

Bridge 1
e------------2--2-2-2------------2--2-2-2--3--0--0-0------
B------------3--3-3-3--3m-3m-3m--3--3-3-3--5--3--3-3------
G--4m-4m-4m--4--4-4-4--2m-2m-2m--2--2-2-2--5--3--3-3------
D--4m-4m-4m--4--4-4-4--0m-0m-0m--0--0-0-0-----------------
A--2m-2m-2m--2--2-2-2-------------------------------------
E---------------------------------------------------------

(continued)
e------------1--1-1-1------------2--2-2-2-----------------
B------------3--3-3-3------------3--3-3-3--3m-3m-3m-------
G--3m-3m-3m--3--3-3-3--4m-4m-4m--4--4-4-4--2m-2m-2m-------
D--3m-3m-3m--3--3-3-3--4m-4m-4m--4--4-4-4--0m-0m-0m-------
A--1m-1m-1m--1--1-1-1--2m-2m-2m--2--2-2-2-----------------
E---------------------------------------------------------

(continued)
e-------6-----6---------8------8--------------------------
B---------8-----8---------10-----10-----------------------
G--2/-7-----7-----7-/-9------9------9---------------------
D---------------------------------------------------------
A---------------------------------------------------------
E---------------------------------------------------------

Bridge 2
e---------------------------------------------------------
B--3-3--3-3-3-3--7-7--7-7-7-7--9-9--9-9-9-9--5-5--5-5-5-5-
G--4-4--4-4-4-4--7-7--7-7-7-7--9-9--9-9-9-9--5-5--5-5-5-5-
D--4-4--4-4-4-4--7-7--7-7-7-7--9-9--9-9-9-9--5-5--5-5-5-5-
A--2-2--2-2-2-2--5-5--5-5-5-5--7-7--7-7-7-7--3-3--3-3-3-3-
E---------------------------------------------------------

(continued)
e---------------------------------------------------------
B--3-3--3-3-3-3--7-7--7-7-7-7--9-9----------9-9-----------
G--4-4--4-4-4-4--7-7--7-7-7-7--9-9--7--7-7--9-9--7--7-7---
D--4-4--4-4-4-4--7-7--7-7-7-7--9-9--8--8-8--9-9--8--8-8---
A--2-2--2-2-2-2--5-5--5-5-5-5--7-7--8--8-8--7-7--8--8-8---
E-----------------------------------6--6-6-------6--6-6---

(continued)
e---------------------------------------------------------
B--10-10------------12-12-12-12-12-12-12-12---------------
G--10-10---9--9--9--12-12-12-12-12-12-12-12---------------
D--10-10--10-10-10--12-12-12-12-12-12-12-12---------------
A---8--8--10-10-10--10-10-10-10-10-10-10-10---------------
E----------8--8--8----------------------------------------


Intro
Chorus
Riff A,B
Verse
Verse, Fill 1
Verse
Chorus
Riff A, B
Verse
Verse, Fill 2
Verse
Chorus
Riff A, B
Riff A
Riff A, B
Bridge 1
Bridge 2
Riff A, B
Chorus
Comments