Offspring - Defy You Chords & Tabs

 

Defy You Chords & Tabs

Offspring Chords & Tabs

Version: 9 Type: Tab 0 ratings
1 star 2 stars 3 stars 4 stars 5 stars
comments

Defy You Tab

---------------------------------------------------------------------|
---------------------------------------------------------------------|
---7--7 /-9----------------------7--7--9-----------------------------|
---7--7-/-9--5--5--5-/-7--2------7--7--9--5--7--5--7--2--2--5--2-----|
---5--5-/-7--5--5--5-/-7--2------5--5--7--5--7--5--7--2--2--5--2-----|
-------------3--3--3-/-5--0---------------3--5--3--5--0--0--3--0-----|
                                                           

---------------------------------------------------------------------|
---------------------------------------------------------------------|
---7--7 /-9----------------------7--7--9-----------------------------|
---7--7-/-9--5--5--5-/-7--2------7--7--9--5--7--5--2-----------------|
---5--5-/-7--5--5--5-/-7--2------5--5--7--5--7--5--2-----------------|
-------------3--3--3-/-5--0---------------3--5--3--0-----------------|
                                                      

|-----------------------------------------------------------------------|
|-----------------------------------------------------------------------|
|---9-9-9-9-9-9-9-12-9-7-9-9-9-9-9-9-12-9-7-9-9-9-9-9-9-12-9------------|
|---------------------------------------------------------------7--5--2-|
|---------------------------------------------------------------7--5--2-|
|---------------------------------------------------------------5--3--0-|


---------------------------------------------------------------------|
---------------------------------------------------------------------|
---7--7 /-9----------------------7--7--9----------------7------------|
---7--7-/-9--5--5--5-/-7--2------7--7--9--5--5--7--2----7------------|
---5--5-/-7--5--5--5-/-7--2------5--5--7--5--5--7--2----5------------|
-------------3--3--3-/-5--0---------------3--3--5--0-----------------|
                                                           

---------------------------------------------------------------------|
---------------------------------------------------------------------|
---7--7 /-9----------------------7--7--9-----------------7-----------|
---7--7-/-9--5--5--5-/-7--2------7--7--9--5--7--5--2-----7-----------|
---5--5-/-7--5--5--5-/-7--2------5--5--7--5--7--5--2-----5-----------|
-------------3--3--3-/-5--0---------------3--5--3--0-----------------|


---------------------------------------------------------------------|
---------------------------------------------------------------------|
---7--7 /-9----------------------7--7--9-----------------------------|
---7--7-/-9--5--5--5-/-7--2------7--7--9--5--7--5--7--2--2--5--2-----|
---5--5-/-7--5--5--5-/-7--2------5--5--7--5--7--5--7--2--2--5--2-----|
-------------3--3--3-/-5--0---------------3--5--3--5--0--0--3--0-----|


---------------------------------------------------------------------|
---------------------------------------------------------------------|
---7--7 /-9----------------------7--7--9-----------------------------|
---7--7-/-9--5--5--5-/-7--2------7--7--9--5--7--5--7--2--2--5--2-----|
---5--5-/-7--5--5--5-/-7--2------5--5--7--5--7--5--7--2--2--5--2-----|
-------------3--3--3-/-5--0---------------3--5--3--5--0--0--3--0-----|


---------------------------------------------------------------------|
---------------------------------------------------------------------|
---7--7 /-9----------------------7--7--9----------------7------------|
---7--7-/-9--5--5--5-/-7--2------7--7--9--5--5--7--2----7------------|
---5--5-/-7--5--5--5-/-7--2------5--5--7--5--5--7--2----5------------|
-------------3--3--3-/-5--0---------------3--3--5--0-----------------|

[ Tab from: http://www.guitartabs.cc/tabs/o/offspring/defy_you_tab_ver_9.html ]
|-----------------------------------------------------------------------|
|-----------------------------------------------------------------------|
|-----------------------------------------------------------------------|
|-----------------------------------------------------------------------|
|---7-7-7-7-7-7-7-7-7-5-5-5-5-5-5-5-5-5-5-5-5-5-5-5-5-5-7-7-7-7-7-7-7-7-7-7--|
|-----------------------------------3-3-3-3-3-3-3-3-3-3-5-5-5-5-5-5-5-5-5-5-|


---------------------------------------------------------------------|
---------------------------------------------------------------------|
---7--7 /-9----------------------7--7--9-----------------------------|
---7--7-/-9--5--5--5-/-7--2------7--7--9--5--7--5--7--2--2--5--2-----|
---5--5-/-7--5--5--5-/-7--2------5--5--7--5--7--5--7--2--2--5--2-----|
-------------3--3--3-/-5--0---------------3--5--3--5--0--0--3--0-----|
                                                  

---------------------------------------------------------------------|
---------------------------------------------------------------------|
---7--7 /-9----------------------7--7--9-----------------------------|
---7--7-/-9--5--5--5-/-7--2------7--7--9--5--7--5--7--2--2--5--2-----|
---5--5-/-7--5--5--5-/-7--2------5--5--7--5--7--5--7--2--2--5--2-----|
-------------3--3--3-/-5--0---------------3--5--3--5--0--0--3--0-----|


|-----------------------------------------------------------------------|
|-----------------------------------------------------------------------|
|---9-9-9-9-9-9-9-12-9-7-9-9-9-9-9-9-12-9-7-9-9-9-9-9-9-12-9------------|
|---------------------------------------------------------------7--5--7-2-2-5-2--|
|---------------------------------------------------------------7--5--7-0-2-5-2--|
|---------------------------------------------------------------5--3--5-0-0-3-0--|
                                                            

|-----------------------------------------------------------------------|
|-----------------------------------------------------------------------|
|---9-9-9-9-9-9-9-12-9-7-9-9-9-9-9-9-12-9-7-9-9-9-9-9-9-12-9------------|
|---------------------------------------------------------------7--5--7-2-2-5-2--|
|---------------------------------------------------------------7--5--7-0-2-5-2--|
|---------------------------------------------------------------5--3--5-0-0-3-0--|


|-----------------------------------------------------------------------|
|-----------------------------------------------------------------------|
|-----------------------------------------------------------------------|
|--7-7-7-7-7-7-7-7-7-7-7-7-5-5-5-5-5-5-5-5-5-5-5-5----------------------------------------------|
|--------------------------------------------------7-7-7-7-7-7-7-7-7-7-7-7-8-8-8-8-8-8-8-8-8-8-8-8-8-8-8| (x6)


---------------------------------------------------------------------|
---------------------------------------------------------------------|
---7--7 /-9----------------------7--7--9-----------------------------|
---7--7-/-9--5--5--5-/-7--2------7--7--9--5--7--5--7--2--2--5--2-----|
---5--5-/-7--5--5--5-/-7--2------5--5--7--5--7--5--7--2--2--5--2-----|
-------------3--3--3-/-5--0---------------3--5--3--5--0--0--3--0-----|
                                                           

---------------------------------------------------------------------|
---------------------------------------------------------------------|
---7--7 /-9----------------------7--7--9-----------------------------|
---7--7-/-9--5--5--5-/-7--2------7--7--9--5--7--5--7--2--2--5--2-----|
---5--5-/-7--5--5--5-/-7--2------5--5--7--5--7--5--7--2--2--5--2-----|
-------------3--3--3-/-5--0---------------3--5--3--5--0--0--3--0-----|
             
                             
---------------------------------------------------------------------|
---------------------------------------------------------------------|
---7--7 /-9---------------------------7--7--9------------------------|
---7--7-/-9--5--7--5-7-2--2--5--2-----7--7--9--5--7--5--2------------|
---5--5-/-7--5--7--5-7-2--2--5--2-----5--5--7--5--7--5--2------------|
-------------3--5--3-5-0--0--3--0--------------3--5--3--0------------|
Comments