Offspring - Defy You Chords & Tabs

 

Defy You Chords & Tabs

Offspring Chords & Tabs

Version: 8 Type: Tab 0 ratings
1 star 2 stars 3 stars 4 stars 5 stars
comments

Defy You Tab

   
#----------------------------------PLEASE NOTE---------------------------------#
#This file is the author's own work and represents their interpretation of the #
#song. You may only use this file for private study, scholarship, or research. #
#------------------------------------------------------------------------------##

The Offspring
Defy You
Orange County Soundtrack
Tabbed by Mike

*I find it's easier just to take songs and when you're playing them
to addlib it.  This is how I play it and it sounds perfect.  You 
guys/girls can place the riffs by yourself.*

The timing isn't right.  Just an estimate.

D-Down stroke
U-Up stroke
/-Slide
h-Hammer on
p-Pull off

Main Riff/Intro A
e: --------------------------------
B: --------------------------------
G: -7/9-9999-----------------------
D: -7/9-9999-5-55-5--7-77-2-22-2---
A: -5/7-7777-5-55-5--7-77-2-22-2---
E: ----------3-33-3--5-55-0-00-0---
    D   DUDU D DU D  D DU D DU D
[ Tab from: http://www.guitartabs.cc/tabs/o/offspring/defy_you_tab_ver_8.html ]
e: ----------------------------------
B: ----------------------------------
G: -7/9-9999-------------------------
D: -7/9-9999-5-55-5-55-7X-5X-7X-2-2--
A: -5/7-7777-5-55-5-55-7X-5X-7X-2-2--
E: ----------3-33-3-33-5X-3X-5X-0-0--
    D   DUDU D DU D DU DU DU DU D D

Main Riff/Intro B (Guitar 2)

*Can be played either way.  The 2nd sounds better if you don't
have someone else to play with.*

e: ---------------------------
B: ---------------------------
G: -7-h-9-999999-7/12-12/7----
D: ---------------------------
A: ---------------------------
E: ---------------------------
           **OR**
e: ---------------------------
B: ---------------------------
G: -7/9-999999-9/12-12/9------
D: -X/X-XXXXXX-X/-X--X/9------
A: -5/7-777777-7/10-10/7------
E: ---------------------------
    D   DUDUDU D    D

Verse (Palm-Muted)
e: ---------------------------
B: ---------------------------
G: -7/9-9999-X----------------
D: -7/9-9999-X-5--5/7-7777-2--
A: -5/7-7777-X-5--5/7-7777-2--
E: ------------3--3/5-5555-0--


I'm working on the little interlude bit still.
Comments