Offspring - Defy You Chords & Tabs

 

Defy You Chords & Tabs

Offspring Chords & Tabs

Version: 6 Type: Tab 0 ratings
1 star 2 stars 3 stars 4 stars 5 stars
comments

Defy You Tab

Intro/Chorus

e-----------------------------------------
H-----------------------------------------
G-7/9-9-9--9------------------------------
D-7/9-9-9--9-5--5-5-5-5-7-7-7--7-2--2-2-2-
A-5/7-7-7--7-5--5-5-5-5-7-7-7--7-2--2-2-2-
E------------3--3-3-3-3-5-5-5--5-0--0-0-0-

e-----------------------------------------
H-----------------------------------------
G-7/9-9-9--9------------------------------
D-7/9-9-9--9-5--5-5-5-5-7--5--7-----------
A-5/7-7-7--7-5--5-5-5-5-7--5--7-----5-x---
E------------3--3-3-3-3-5--3--5--0--3-0---

or:
e-----------------------------------------
H-----------------------------------------
G-7/9-9-9--9------------------------------
D-7/9-9-9--9-5--5-5-5-5-7--5--2-----------
A-5/7-7-7--7-5--5-5-5-5-7--5--2-----------
E------------3--3-3-3-3-5--3--0-----------

Lead Riff

e-----------------------------------------------
H-----------------------------------------------
G-7-9-9-9--9-9--12-9-9-9-7-9-9-9--9-9--12-9-9-9-
D-----------------------------------------------
A-----------------------------------------------
E-----------------------------------------------

Verse

e---------------------------------------
H---------------------------------------
G---------------------------------------
D-7-9-9-9--9-5--5-5-5-5-----------------
A-5-7-7-7--7-5--5-5-5-5-7-7-7--7-2------
E-----------------------5-5-5--5-0------
pm......................................
[ Tab from: http://www.guitartabs.cc/tabs/o/offspring/defy_you_tab_ver_6.html ]
e---------------------------------------
H---------------------------------------
G-----------------------------------7---
D-7-9-9-9--9-5--5-5-5-5-------------7---
A-5-7-7-7--7-5--5-5-5-5-7-7-7--7-2--5---
E-----------------------5-5-5--5-0------
pm..................................

Bridge(w/Delay)

e---------------------------------------------------------
H---------------------------------------------------------
G-9-(9)--(9)-(9)--(9)-(9)-----7-(7)--(7)-(7)--(7)-(7)-----
D-9-(9)--(9)-(9)--(9)-(9)--9--7-(7)--(7)-(7)--(7)-(7)--7--
A-7-(7)--(7)-(7)--(7)-(7)--7--5-(5)--(5)-(5)--(5)-(5)--5--
E---------------------------------------------------------

e---------------------------------------------------------
H---------------------------------------------------------
G---------------------------------------------------------
D-5-(5)--(5)-(5)--(5)-(5)-----7-(7)--(7)-(7)--(7)-(7)-----
A-5-(5)--(5)-(5)--(5)-(5)--5--7-(7)--(7)-(7)--(7)-(7)--7--
E-3-(3)--(3)-(3)--(3)-(3)--3--5-(5)--(5)-(5)--(5)-(5)--5--

Solo-Riff

e-----------------------------------------------------------------------
H-----------------------------------------------------------13h15\(22)/-
G-7-9-9-9--9-9--12-9-9-9-7-9-9-9--9-9--12-9-9-9-14--12--14--------------
D-----------------------------------------------------------------------
A-----------------------------------------------------------------------
E-----------------------------------------------------------------------

Comments