Offspring - Defy You Chords & Tabs

 

Defy You Chords & Tabs

Offspring Chords & Tabs

Version: 5 Type: Tab 0 ratings
1 star 2 stars 3 stars 4 stars 5 stars
comments

Defy You Tab

DEFY YOU by THE OFFSPRING from the album ORANGE COUNTY O.S.T. (2002)
This is a brand new song, which rocks!!! It´s the title song of the movie "Orange County".
The song isn´t very hard to play - but you´ve to decide which part you´ll play because this song is played
by 2 guitarplayers.
I´m the first guy who tabbed this one, so there might be a few faults, but all in all it´s fine. 
Hey, I´m just 15 years old!

STANDARD TUNING (EADGBE)

Notes:
* = Play this 8 times
# = Let ring
/ = Slide

=Main Riff= x1 / GUITAR 1
|---------------------------------------------------------------------------------------------------------------|
|---------------------------------------------------------------------------------------------------------------|
|-7/9-9-9-9-9------------------------------------------7/9-9-9-9-9-------------------------------------|
|-7/9-9-9-9-9-4/5------------5/7-7-7-7-7-2#----7/9-9-9-9-9-4/5--------7--5-7----2-2-5-2-|
|-5/7-7-7-7-7-4/5------------5/7-7-7-7-7-2#----5/7-7-7-7-7-4/5--------7--5-7----2-2-5-2-|
|-----------------2/3------------3/5-5-5-5-5-0#---------------------2/3--------5--3-5----0-0-3-0-|

|---------------------------------------------------------------------------------------------------------------|
|---------------------------------------------------------------------------------------------------------------|
|-7/9-9-9-9-9------------------------------------------7/9-9-9-9-9-------------------------------------|
|-7/9-9-9-9-9-4/5------------5/7-7-7-7-7-2#----7/9-9-9-9-9-4/5--------7--5--2#-------------|
|-5/7-7-7-7-7-4/5------------5/7-7-7-7-7-2#----5/7-7-7-7-7-4/5--------7--5--2#-------------|
|-----------------2/3------------3/5-5-5-5-5-0#---------------------2/3--------5--3--0#-------------|

=Solo= x3 / GUITAR 2 / Play Solo when GUITAR 1 finished the first part of the Main Riff
|--------------------------------------|
|-4/5--5-5-5--5-5--5-5--8-5---|
|--------------------------------------|
|--------------------------------------|
|--------------------------------------|
|--------------------------------------|

=Verse= x1 / GUITAR 1 / Everything except the brackets is palm-muted
|--------------------------------------------------------------------------------------------------------------------------|
|--------------------------------------------------------------------------------------------------------------------------|
|-7/9-9-9-9-9-----------------------------------------7/9-9-9-9-9-------------------------------------------------|
|-7/9-9-9-9-9-4/5------------5/7-7-7-7-7-2-----7/9-9-9-9-9-4/5------------5/7-7-7-7-7-2----(5)------|
|-5/7-7-7-7-7-4/5------------5/7-7-7-7-7-2-----5/7-7-7-7-7-4/5------------5/7-7-7-7-7-2----(5)------|
|-----------------2/3------------3/5-5-5-5-5-0----------------------2/3------------3/5-5-5-5-5-0----(3)------|

|-----------------------------------------------------------------------------------------------------------------|
|-----------------------------------------------------------------------------------------------------------------|
|-7/9-9-9-9-9-----------------------------------------7/9-9-9-9-9----------------------------------------|
|-7/9-9-9-9-9-4/5------------5/7-7-7-7-7-2-----7/9-9-9-9-9-4/5------------5/7-7-7-7-7-2----|
|-5/7-7-7-7-7-4/5------------5/7-7-7-7-7-2-----5/7-7-7-7-7-4/5------------5/7-7-7-7-7-2----|
|-----------------2/3------------3/5-5-5-5-5-0----------------------2/3------------3/5-5-5-5-5-0----|
[ Tab from: http://www.guitartabs.cc/tabs/o/offspring/defy_you_tab_ver_5.html ]
=Chorus= x2 / BOTH GUITARS
|---------------------------------------------------------------------------------------------------------------|
|---------------------------------------------------------------------------------------------------------------|
|-7/9-9-9-9-9------------------------------------------7/9-9-9-9-9-------------------------------------|
|-7/9-9-9-9-9-4/5------------5/7-7-7-7-7-2#----7/9-9-9-9-9-4/5--------7--5-7----2-2-5-2-|
|-5/7-7-7-7-7-4/5------------5/7-7-7-7-7-2#----5/7-7-7-7-7-4/5--------7--5-7----2-2-5-2-|
|-----------------2/3------------3/5-5-5-5-5-0#---------------------2/3--------5--3-5----0-0-3-0-|

Then play
=Verse= x1

=Interlude= x1 / GUITAR 1 / Everything is palm-muted
|--------------------------------------------------------------------------------------------|
|--------------------------------------------------------------------------------------------|
|--------------------------------------------------------------------------4*----5*--------|
|--2-2--2-2--2-2--2-2--2--2----0-0--0-0--0-0--0-0--0--0----4*----5*--------|
|--------------------------------------------------------------------------2*----3*--------|
|--------------------------------------------------------------------------------------------|

Then play
=Chorus= x2
Then 
GUITAR 1 plays =Chorus= 2 times and GUITAR 2 plays =Solo= 5 times (Listen at the song, to hear when to play the =Solo=) and plays then

|-----------------------------------------------|
|-4/5--5-5-5--5-5--5-5-8/10-8-10----|
|-----------------------------------------------|
|-----------------------------------------------|
|-----------------------------------------------|
|-----------------------------------------------|

=Interlude 2= x5 / GUITAR 1 / Everything is palm-muted
|----------------------------------------------------------------------------------------------------------------------------------------------------|
|----------------------------------------------------------------------------------------------------------------------------------------------------|
|----------------------------------------------------------------------------------------------------------------------------------------------------|
|--2-2--2-2--2-2--2-2--2--2----0-0--0-0--0-0--0-0--0--0------------------------------------------------------------------------------|
|---------------------------------------------------------------------------2-2--2-2--2-2--2-2--2--2----3-3--3-3--3-3--3-3--3--3-----|
|----------------------------------------------------------------------------------------------------------------------------------------------------|

When GUITAR 1 played =Interlude 2= 3 times, GUITAR 2 plays this once (Brackets are palm-muted)
|-------------------------------------------------------------------------------------|
|-------------------------------------------------------------------------------------|
|--(9*----7*----4*----5*)---------9*----7*----4*----4*------------------------|
|--(9*----7*----4*----5*)---------9*----7*----4*----4*------------------------|
|--(7*----5*----2*----3*)---------7*----5*----2*----2*------------------------|
|-------------------------------------------------------------------------------------|

Then play
=Chorus= x2

=End= x1 / BOTH GUITARS
|--------------------------------------------------------------------------------------------------------------|
|--------------------------------------------------------------------------------------------------------------|
|-7/9-9-9-9-9-------------------------------------------7/9-9-9-9-9-----------------------------------|
|-5/7-7-7-7-7-4/5-------7--5-7----2-2-5-2--------7/9-9-9-9-9-4/5----7----5----2#----------|
|-5/7-7-7-7-7-4/5-------7--5-7----2-2-5-2--------5/7-7-7-7-7-4/5----7----5----2#----------|
|-----------------2/3--------5--3-5----0-0-3-0------------------------2/3----5----3----0#----------|
 
Let the final note ring and relax! This song´s a cool mixture from Grunge and Punkrock - and that rules!
Send your comments about this Tab to "ali.germany2000@freenet.de"

Tabbed by: Ali_A (10th November 2001)
Comments