Offspring - Defy You Chords & Tabs

 

Defy You Chords & Tabs

Offspring Chords & Tabs

Version: 3 Type: Tab 0 ratings
1 star 2 stars 3 stars 4 stars 5 stars
comments

Defy You Tab

The Offspring
“Defy You”
Available on the Orange County Soundtrack
Tabbed by Bobby L.

Intro/Chorus
E-----------------------------------------------------------------------
B----------------------------------------------------------------------------------
G----------------------------------------------------------------------------------
D-----12/14-------14----14------5-----5/7---7---7----2-----------------------------
A-----12/14-------14----14------5-----5/7---7---7----2---------------------------
E-----10/12-------14-----14------3-----3/5---5---7----0----------------------------
[ Tab from: http://www.guitartabs.cc/tabs/o/offspring/defy_you_tab_ver_3.html ]
----------------------------------------------------------------------
----------------------------------------------------------------------
----------------------------------------------------------------------
-----12/14-----14--14-----5---7--5--7----------2--5--2----------------
-----12/14-----14--14-----5---7--5--7----------2--5--2----------------
-----10/12-----12--12-----3---5--3--5----------0--3--0--------------------------------------

Bridge

--0---0---0—0—0—0—0—0--0--------------------------------------------------------------------
-------------------------3-3---3-3-3--3-3-3--3-0-0--0-0-0—0-1-1-------------
--------------------------------------------------------------------------------------------
--------------------------------------------------------------------------------------------
--------------------------------------------------------------------------------------------
--------------------------------------------------------------------------------------------
Comments