Offspring - Defy You Chords & Tabs

 

Defy You Chords & Tabs

Offspring Chords & Tabs

Version: 13 Type: Tab 0 ratings
1 star 2 stars 3 stars 4 stars 5 stars
comments

Defy You Tab

Artist: The Offspring
Song: Defy you
Album: ?
Tabed By Paul
[ Tab from: http://www.guitartabs.cc/tabs/o/offspring/defy_you_tab_ver_13.html ]
E|------------------------------------------------|
B|------------------------------------------------|
G|-7/99-------------7/99--------------------------|
D|-7/99--5-5/77--2--7/99--5-7-5-7-2-2-2-----------|
A|-5/77--5-5/77--2--5/77--5-7-5-7-2-2-2-----------|
E|-------3-3/55--0--------3-5-3-5-0-0-0-3b0-------|

  this is when he starts singing
E|------------------------------|
B|------------------------------|
G|-7/99-------------------------|
D|-7/99--55--5/77--22-----------|
A|-5/77--55--5/77--22-----------|
E|-------33--3/55--00-----------|


Well that's the correct one  hope you like it!
Comments