Offspring - Dammit I Changed Again Chords & Tabs

 

Dammit I Changed Again Chords & Tabs

Offspring Chords & Tabs

Version: 9 Type: Tab 0 ratings
1 star 2 stars 3 stars 4 stars 5 stars
comments

Dammit I Changed Again Tab

Here are the 100% correct tabs, and I\\\'m sure of it.  This song is a good starting song to get ur band going. Well hope you can get this.

INTRO
e|-----------------------------------|
B|-----------------------------------|
G|-----------------------------------|
D|-3---------------------------------|  Let This Ring
A|-3---------------------------------|
E|-1---------------------------------|

PRE-CHORUS (theres a pick scrape right before this)
e|--------------------------------------|
B|--------------------------------------|
G|--------------------------------------|   This is that one
D|3--6-5-6---6-5-6---6-5-6-8-6-5---3----| Sweet guitar 
A|---------4-------6-------------6------|   pre-chorus
E|--------------------------------------| (play twice)

BRIDGE    (^=palm-muting)
e|--------------------------------------|this part is kinda
B|--------------------------------------| tricky, just 
G|--8-8-8-8-8-8-8-8-8-------------------| listen to the cd,
D|--8-8-8-8-8-8-8-8-8-------------------| and you\\\'ll hear
A|--6-6-6-6-6-6-6-6-6-------------------| it
E|--------------------------------------|  
    ^ ^ ^ ^ ^ ^ ^ ^                      (play during the 
  \\\"Clear out the cob webs in my SOUL.\\\"      bolded words.)

  \\\"When nothing\\\'s changed except FOR.\\\"
[ Tab from: http://www.guitartabs.cc/tabs/o/offspring/dammit_i_changed_again_tab_ver_9.html ]
CHORUS   (each played 8x\\\'s)
e|--------------------------------------|
B|--------------------------------------| This is when he\\\'s
G|10----6---------8---------------------|  singing.
D|10----6----6----8---------------------|(whole thing 
A|-8----4----6----6---------------------|  played twice)
E|-----------4--------------------------|
 \\\"This time I turn around, things have changed...\\\"
 
EXTRA PART   (each played 6x\\\'s)
e|--------------------------------------|
B|--------------------------------------| There is a special
G|--------------------------------------| beat to this, so
D|----6-----8-------6---!!BRIDGE!!------| listen to the cd
A|-3--4--6--6---3---4-------------------| for it.
E|-1-----4------1-----------------------|
  \\\"Doesn\\\'t make any sense, to feel soo...\\\"

SOLO
e|--------------------------------------|
B|--------------------------------------| This is really 
G|-----------6-6-6---5-5-5--------------| easy once you get
D|10-10-10----6-6-6---6-6-6--8-8-8------| the hang of it.
A|--8--8--8-------------------6-6-6-----| Listen to the cd
E|--------------------------------------| for # of times to
                                          play it.

ENDING
e|--------------------------------------|
B|--------------------------------------|let the last part
G|--8-----------------------------------|  ring
D|--8-------------3---------------------|
A|--6-------------3---------------------|
E|----------------1---------------------|


ORDER:
   Intro
   Pre-chorus
      (bass part, do not play)    
   Bridge
   Chorus
   Pre-Chorus
      (bass part, do not play)
   Extra Part w/ bridge
   Chorus
   Solo
      And then it just keeps going on for awhile after that.
   Ending


        If that order doesn\\\'t help you, listen to the cd for everything then, and I hope this helps you, again, if u have ne Q. don\\\'t email me, because I won\\\'t bother to check it, haha, ok, bye.100% correct!!!!right?
Comments