Offspring - Dammit I Changed Again Chords & Tabs

 

Dammit I Changed Again Chords & Tabs

Offspring Chords & Tabs

Version: 5 Type: Tab 0 ratings
1 star 2 stars 3 stars 4 stars 5 stars
comments

Dammit I Changed Again Tab

   
Song: Dammit, I changed again
By: Offsping
Album: Comspiracy of One
Tabbed by: Preston (Re_Entry70@hotmail.com)


Opening Riff
D|3________________________________|
A|3________________________________|after this there is 
E|1________________________________|feedback

Riff 1
D|8-11-10-11---11-10-11----11-10-11--13-13-11-10---|
A|-----------9----------11-----------------------11|

Riff 2
G|10\6|
D|10\6|
A|8-\4|
[ Tab from: http://www.guitartabs.cc/tabs/o/offspring/dammit_i_changed_again_tab_ver_5.html ]
Riff 3 (just the chords, if u listen to the cd u can
        get the rythme.)
G|5--6-----8|
D|3--6--6--8|
A|---4--6--6|  2nd verse u play this threw some of it, 
E|------4---|  but it's palm muted.

Riff 4
With delay
D|10-10-10---11-11-11---10-10-10----8-8-8--|
A|--8--8---8---8--8---8---8--8---8---8-8--8|

Riff 5 play with Riff 4 but only after a couple 
       of measures.

Chords  just listen to the cd for the rythme.
D|10---------11---------10----------8------|
A|8----------8----------8-----------8------|
E|8----------8----------8-----------8------|

Those are the riffs u just have to put them in order,
I hae to give u something to work at.  Enjoy
E-mail me Re_Entry70@hotmail.com
Comments