Offspring - Dammit I Changed Again Chords & Tabs

 

Dammit I Changed Again Chords & Tabs

Offspring Chords & Tabs

Version: 4 Type: Tab 1 rating
1 star 2 stars 3 stars 4 stars 5 stars
comments

Dammit I Changed Again Tab

#----------------------------------PLEASE NOTE--------------------------------#
#This file is the author's own work and represents their interpretation of the#
#song. You may only use this file for private study, scholarship, or research.#
#-----------------------------------------------------------------------------#
#-- File created with Instab - http://www.pconline.com/~smcarey/instab.html --#
#-----------------------------------------------------------------------------#

Author/Artist: the offspring
Title: dammit i changed agaion
Album: co1
Transcribed by: stupidkid
Email: all_killer_no_filler_69@hotmail.com

this tab is about 100% correct and don't
say it is'nt if u just can't play it i've been
playing for 6 months now and i'm coming on quite well.


------------------------------------------------------------------------------
------------------------------------------------------------------------------
------------------------------------------------------------------------------
--3---------------------------------------------------------------------------
--3---------------------------------------------------------------------------
--1---------------xxxxxxxxxxxxxxxx--------------------------------------------
     let ring     pick scrape                                                 

------------------------------|-------------------|---------------------------
------------------------------|-------------------|---------------------------
--------10-/--13--12---13-/-6-|-13--12---13/--8---|-/-13--12--13--13----------
--------x-----x---x----x----x-|-x---x----x----x---|---x---x---x---x-----------
--------8--/--11--10---11-/-4-|-11--10---11/--6---|-/-11--10--11--13----------
------------------------------|-------------------|---------------------------
                                                                              

---------------------------|--------------------------------------------------
---------------------------|--------------------------------------------------
--15--13--12--12--8-----10-|----------------------------------------10--------
--x---x---x-------x-----x--|----------------------------------------x---------
--13--11--10--10--6-----8--|----------------------------------------8---------
---------------------------|--------------------------------------------------
  (intro and verse)    play intro 2'nd time but don't play chord above        

------------------------------------------------------------------------------
------------------------------------------------------------------------------
--10--------------------------------------------------------------------------
--x---------------------------------------------------------------------------
--8---------------------------------------------------------------------------
------------------------------------------------------------------------------
 hey come in side while i stand here acting bold...                           
[ Tab from: http://www.guitartabs.cc/tabs/o/offspring/dammit_i_changed_again_tab_ver_4.html ]
-------------------|----------------------------------------------------------
-------------------|----------------------------------------------------------
-------------------|--8-------------------------------------------------------
-------------------|--8-------------------------------------------------------
----6-6-6-6-6-6-6-6|--6-------------------------------------------------------
----4-4-4-4-4-4-4-4|----------------------------------------------------------
    pm.............                                                           

----------------------|---------------------|---------------|---------------|-
----------------------|---------------------|---------------|---------------|-
----------------------|---------------------|---------------|---------------|-
----------------------|--6-6----6----6--6--6|---------------|--8-8-8--8-8-8-|-
-----3-3----3----3-3-3|--4-4----4----4--4--4|6-6---6---6-6-6|--6-6-6--6-6-6-|-
-----1-1----1----1-1-1|---------------------|4-4---4---4-4-4|---------------|-
    pm...................................................................... -

----------------|------------------|-----------------|------------------------
----------------|------------------|-----------------|------------------------
----------------|------------------|-----------------|---8--------------------
----------------|----6-6--6---6-6-6|-----------------|---8--------------------
--3-3---3--3-3-3|----4-4--4---4-4-4|-6--6-6-6-6-6-6-6|---6--------------------
--1-1---1--1-1-1|------------------|-4--4-4-4-4-4-4-4|------------------------
 pm...................................................                        

------------------|------------|-------------|--------------------------------
------------------|------------|-------------|--------------------------------
---5---5---5------|-6---6---6--|--5---5---5--|--3----3---3--------------------
-----3---3-----3/6|---6---6---6|----6---6---6|-----1---1---1/3----------------
------------------|------------|-------------|--------------------------------
------------------|------------|-------------|--------------------------------
 let ring.......................................................              

-----------------|------------------|----------------|------------------------
-----------------|------------------|----------------|------------------------
-----------------|------------------|----------------|---------8-8-8-8-8/-10--
-----------------|--6-6-6-6-6-6-6-6-|----------------|---8-8-8-8-8-8-8-8/-10--
--3-3-3-3-3-3-3-3|--4-4-4-4-4-4-4-4-|-6-6-6-6-6-6-6-6|---6-6-6-6-6-6-6-6/-8---
--1-1-1-1-1-1-1-1|------------------|-4-4-4-4-4-4-4-4|------------------------
  pm ................................................................. gtr 2  

---------------------|-------------------|------------------------------------
---------------------|-------------------|------------------------------------
--8------------------|--8-------------8-\|------------------------------------
----8-8-8-8-8-8-8-8--|--8-------------8-\|-3----------------------------------
--6-6-6-6-6-6-6-6-6--|--6-------------6-\|-3----------------------------------
---------------------|-------------------|-1----------------------------------
 thats the whole thing its mostly both guitars playing the same thing but     

------------------------------------------------------------------------------
------------------------------------------------------------------------------
------------------------------------------------------------------------------
------------------------------------------------------------------------------
------------------------------------------------------------------------------
------------------------------------------------------------------------------
 sometimes it changes                                                         

Comments