Offspring - Dammit I Changed Again Chords & Tabs

 

Dammit I Changed Again Chords & Tabs

Offspring Chords & Tabs

Version: 2 Type: Tab 0 ratings
1 star 2 stars 3 stars 4 stars 5 stars
comments

Dammit I Changed Again Tab

@@@@@@@@@@@@@@@@@@@@@@@@@@@@@@
  Artist: The Offspring
  Album: Conspiracy of One
  Song: Dammit, I changed again
@@@@@@@@@@@@@@@@@@@@@@@@@@@@@@

This song is really cool, and one of the best on Co1!
It has a extremeley cool riff, which is worth learning.
Oh, and thanks to Per(per@coolast.com) for correcting the riff.
Go ahead, play it, you know you want to.....

/Daniel - phantom@libertysurf.se


: = let ring
pm = palm mute

Intro:
E|------|
B|------|
G|------|
D|--3:--|
A|--3:--|
E|--1:--|


Riff: 2x
E|------------------------------------------------|
B|------------------------------------------------|
G|------------------------------------------------|
D|------6-5-6------6-5-6------6-5-6--6-8-6-5------|
A|--8-8--------4-4--------6-6----------------6-8--|
E|------------------------------------------------|


Chorus: 2x   * = 5 times  () = only first chorus
E|-------------------------|
B|-------------------------|
G|--(pm)--10*--6*------8*--|
D|--(6)---10*--6*--6*--8*--|
A|--(6)----8*--4*--6*--6*--|
E|--(4)------------4*------|


Play riff 2x

[ Tab from: http://www.guitartabs.cc/tabs/o/offspring/dammit_i_changed_again_tab_ver_2.html ]
Verse: Not played until verse 3 - "Doesn't make any sense...."   
E|-----------------------------------------------------------------------------------|
B|-----------------------------------------------------------------------------------|
G|--10-10-10-10--6-6-6-6--pmpmpmpm-8-8-8-8--10-10-10-10--6-6-6-6-pmpmpmpm------------|
D|--10-10-10-10--6-6-6-6--6-6-6-6--8-8-8-8--10-10-10-10--6-6-6-6--6-6-6-6-6-6-6-6-6--|
A|---8--8--8--8--4-4-4-4--6-6-6-6--6-6-6-6---8--8--8--8--4-4-4-4--6-6-6-6-6-6-6-6-6--|
E|--pmpmpmpmpmpmpmpmpmpm--4-4-4-4--pmpmpmpm-pmpmpmpmpmpm-pmpmpmpm-4-4-4-4-4-4-4-4-4--|


Play chorus, then play it again with the riff over it.


Interlude: 4x  No Distortion
E|------------------------------------------------------------|
B|------------------------------------------------------------|
G|--10----10----10-----6---6---6-----------------8---8---8----|
D|-----10----10----10----6---6---6--6---6---6------8---8---8--|
A|------------------------------------6---6---6---------------|
E|------------------------------------------------------------|


Last time interlude is played, the chorus is palm muted in the background.
Then proceed to chorus, then once again with the riff over it.
Then play riff 2x, and end......


End:
E|------|
B|------|
G|------|
D|--3:--|
A|--3:--|
E|--1:--|
Comments