Offspring - Da Hui Chords & Tabs

 

Da Hui Chords & Tabs

Offspring Chords & Tabs

Version: 2 Type: Tab 0 ratings
1 star 2 stars 3 stars 4 stars 5 stars
comments

Da Hui Tab

#----------------------------------PLEASE NOTE---------------------------------#
#This file is the author's own work and represents their interpretation of the #
#song. You may only use this file for private study, scholarship, or research. #
#------------------------------------------------------------------------------#

Da Hui by Offspring
27.09.03

Verse

E|-------------------------|    |---------------|
B|-------------------------|    |---------------|
G|-------------------------|    |---------------|
D|-------------9-9-9-4-6-4-| x3 |---------------|
A|-6-6-4-6-6-6-7-7-7-2-4-2-|    |-6-6-4-6-6-6-6-|
E|-4-4-2-4-4-4-------------|    |-4-4-2-4-4-4-4-|
[ Tab from: http://www.guitartabs.cc/tabs/o/offspring/da_hui_tab_ver_2.html ]
Chorus            
E|---------|       
B|---------|      
G|---------|       
D|-9-------| x4    
A|-7--4--6-|      
E|----2--4-| Hold  

Solo
 (Drilling)
|---------------------------|---------------------------|
|------------9--------------|---------------------------|
|-8-9-6-9--8---6-9--8-9-6-9-|---------------------------|
|---------------------------|---------------------------|
|---------------------------|-------3-3h4-4h6-3h4-------|
|---------------------------|-4-4h5---------------5h7-4-|

End

E|-------------------------|-----------------|   
B|-------------------------|-----------------|   
G|-------------------------|-----------------|
D|-------------9-9-9-4-6-4-|-----------------|
A|-6-6-4-6-6-6-7-7-7-2-4-2-|-6-6-6-6-6-4-7-6-|    
E|-4-4-2-4-4-4-------------|-4-4-4-4-4-2-5-4-|
                             [  PM   ]
Comments