Offspring - Da Hui Chords & Tabs

 

Da Hui Chords & Tabs

Offspring Chords & Tabs

Version: 4 Type: Bass Tab 0 ratings
1 star 2 stars 3 stars 4 stars 5 stars
comments

Da Hui Bass Tab

Song:Da Hui
Artist:The Offspring
Album:Splinter
Tabber:Greg

||--------------------------------|---------------------------------|
||----------------3-3-3-3---------|-------------- 0/ ---------------|
||------------------------3-3-5-3-|-------------- /0 ---------------|
||5-5-5-3-5-5---5-----------------|---------------------------------|

|---------------------------------|---------------------------------|
|0----------------3-3-3-3---------|-------------- 0/ ---------------|
|0------------------------3-3-5-3-|-------------- /0 ---------------|
|-5-5-5-3-5-5---5-----------------|---------------------------------|

|---------------------------------|---------------------------------|
|-------------- 0/ ---------------|--------------------------------0|
|-------------- /0 ---------------|--------------------------------0|
|---------------------------------|-5-5-5-3-5-5-5-3-5---------------|

|---------------------------------|---------------------------------|
|-3-3-3-3-------------------------|-------------- 0/ ---------------|
|---------------------------------|-------------- /0 ---------------|
|---------3-3-3-3-5-5-5-5-5-5-5-5-|---------------------------------|

|---------------------------------|---------------------------------|
|-------------- 0/ ---------------|-3-3-3-3-------------------------|
|-------------- /0 ---------------|---------------------------------|
|---------------------------------|---------3-3-3-3-5---------------|
[ Tab from: http://www.guitartabs.cc/tabs/o/offspring/da_hui_btab_ver_4.html ]
|---------------------------------|---------------------------------|
| |==============4x=============| |-3-3-3-3-------------------------|
| |=============================| |---------------------------------|
|---------------------------------|---------3-3-3-3-5-5-5-5-5-5-5-5-|

|---------------------------------|---------------------------------|
|-------------- 0/ ---------------|-------------- 0/ ---------------|
|-------------- /0 ---------------|-------------- /0 ---------------|
|---------------------------------|---------------------------------|

|---------------------------------|---------------------------------|
|-3-3-3-3-------------------------| |=============3x==============| |
|---------------------------------| |=============================| |
|---------3-3-3-3-5---5---5---5---|---------------------------------|

|---------------------------------|---------------------------------|
|---------------------------------|-----------------3-3-3-3---------|
|---------------------------------|-------------------------3-3-5-3-|
|-5-5-----5-5-5-----5-5---5---5---|-5-5-5-3-5-5---5-----------------|
                                                                              
|--------------------------------||         ___       __            
|--------------------------------||        |    |\  | | \
|--------------------------------||        |--  | \ | | |      
|-5-5-5-5-5-3-6---5--------------||        |___ |  \| |_/

E-mail me if u think this tab is any good - Hotvenue@Aol.com
Comments