Offspring - Crossroads Chords & Tabs

 

Crossroads Chords & Tabs

Offspring Chords & Tabs

Version: 1 Type: Tab 0 ratings
1 star 2 stars 3 stars 4 stars 5 stars
comments

Crossroads Tab

#----------------------------------PLEASE NOTE---------------------------------#
#This file is the author's own work and represents their interpretation of the #
#song. You may only use this file for private study, scholarship, or research. #
#------------------------------------------------------------------------------#

Song:Crossroads
Artist:The Offspring
Tabbed by:Ronny Ø

[ Tab from: http://www.guitartabs.cc/tabs/o/offspring/crossroads_tab.html ]
# intro # 0:05  *=play until 0:18
G---------------------*--|
D--12-------------12/0---|
A------------------------|
E------------------------|
:
# greatline # *=play 12X                                                >
G---7--7-7/9-9-9/101010-10/141413-1313-131313/9--9-9--9-9-9------------->
D---0--0-0-0-0-0--0-0-0--0--0-0-0--0-0--0-0-0-0--0-0--0-0-0------------->
A-----------------------------------------------------------1-------0--->
E----------------------------------------------------------------------->
>greatline
>---7--7-7/9-9-9/101010-10/141413-1313-131313/9--9-9--9-9-9----------*--|
>---0--0-0-0-0-0--0-0-0--0--0-0-0--0-0--0-0-0-0--0-0--0-0-0--*-----/7---|
>-----------------------------------------------------------1-----------|
>-----------------------------------------------------------------------|
:
# verse # X2 *=play 6X
G---------------------------------------------------------------|
D---0-3-2-1-0-3-2-0--*-------*-------*---------------*-------*--|
A-------------------3-------0-------1--------*------0-------0---|
E-------------------------------------------3-------------------|
:
# chorus #   *=play 6X   #=play 3X
G--------------------#-------------------------------#----------|
D--------#---*------3----#---*-----------#---*------3----#---*--|
A----#--3---5-----------3---5--------#--3---5-----------3---5---|
E---1-------------------------------1---------------------------|
:
# solo-bg #    *=play 6X
G--------------------------------------------*-------*-------*--|
D---0-3-2-1-0-3-2-0--*-------*-------*------5-------7-------7---|
A-------------------3-------0-------1---------------------------|
E---------------------------------------------------------------|
:
Then play chorus.
:
# bridge #   *=play 9X   #=play 4X                      >
G-|----------------------------------------------------->
D-|-3-3---5-3-2-0--3-3---3-------3-3---5-3-2-0--3------->
A-|------------------------3-5----------------------3--->
E-|----------------------------------------------------->
>bridge                  /\  \/            
>--------------------------2X-------------------------------|----2X-----|-|
>----*-------*------3-2-----------*-------*------3-2--------|-----------|-|
>---5-------1---3-3------3-3-5---5-------1---3-3------3-3-5-|-3-------1-|-|
>-----------------------------------------------------------|-----------|-|
Comments