Offspring - Conspiracy Of One Chords & Tabs

 

Conspiracy Of One Chords & Tabs

Offspring Chords & Tabs

Version: 1 Type: Tab 0 ratings
1 star 2 stars 3 stars 4 stars 5 stars
comments

Conspiracy Of One Tab

Title: Conspiracy Of One
Artist: The Offspring
CD: Conspiracy Of One

Tabbed by: the Goldsmith (zelda@unet.com.mk)
Date: 12.10.2000

Not a song goes by me :-)
This one reminds me of Session a lot, especially at the chorus and when I played the intro.

Intro
G|-7-7--5-7-7--5-7-7-7--3-5--|
D|-7-7--5-7-7--5-7-7-7--3-5--|
A|-5-5--3-5-5--3-5-5-5--1-3--|
E|---------------------------|

Verse
G|-7-7--9-10-7--m-m-5--5-5-5-m-m-3--3-5--|
D|-7-7--9-10-7--3-3-5--5-5-5-3-3-3--3-5--|
A|-5-5--7--8-5--3-3-3--3-3-3-3-3-1--1-3--|
E|--------------1-1----m-m-m-1-1---------|

Pre-chorus
G|-7-7--5-7-7--5-7--|
D|-7-7--5-7-7--5-7--|
A|-5-5--3-5-5--3-5--|
E|------------------|
This is sometimes followed by a pickscrape.

Chorus ("Nobody wins...")
G|-7--9-10--5----5--|
D|-7--9-10--5--5-5--|
A|-5--7--8--3--5-3--|
E|-------------3----|
[ Tab from: http://www.guitartabs.cc/tabs/o/offspring/conspiracy_of_one_tab.html ]
Chorus end ("...when it's done... Conspiracy of one!")
G|-7--9-10--5----5-3--3-3--3-5--|
D|-7--9-10--5--5-5-3--3-3--3-5--|
A|-5--7--8--3--5-3-1--1-1--1-3--|
E|-------------3----------------|

Bridge1
G|-7-7-7-7-7-9-7-10\-3-3-3-3-3-5-3---7-7-7-7-7-9-7-10\-3-3-3-3-3-m-m----|
D|-7-7-7-7-7-9-7-10\-3-3-3-3-3-5-3-5-7-7-7-7-7-9-7-10\-3-3-3-3-3-5-5-5--|
A|-5-5-5-5-5-7-5--8\-1-1-1-1-1-3-1-5-5-5-5-5-5-7-5--8\-1-1-1-1-1-5-5-5--|
E|-m-m-m-m-m-m-m-----m-m-m-m-m-m-m-3-m-m-m-m-m-m-m-----m-m-m-m-m-3-3-3--|

Bridge2, m=palm-muted X4
e|---------------------------------5-3----------------------------------------|
B|---------------------------------5-3----------------------------------------|
G|-7-7-7-7-7-9-7-10\-3-3-3-3-3-----4-2-7-7-7-7-7-9-7-10\-------12*-12-12-12\--|
D|-7-7-7-7-7-9-7-10\-3-3-3-3-3-3-5-5-3-7-7-7-7-7-9-7-10\-8*-8*-12*-12-12-12\--|
A|-5-5-5-5-5-7-5--8\-1-1-1-1-1-3-5-5-3-5-5-5-5-5-7-5--8\-8*-8*-10*-10-10-10\--|
E|-----------------------------1-3-3-1-------------------6*-6*----------------|
Comments