Offspring - Come Out Swinging Chords & Tabs

 

Come Out Swinging Chords & Tabs

Offspring Chords & Tabs

Version: 4 Type: Tab 0 ratings
1 star 2 stars 3 stars 4 stars 5 stars
comments

Come Out Swinging Tab

   
Offspring, Come Out Swinging.
 Tabbed by Sebastian Lapidus, sebaslap@yahoo.com.
  
Intro:(distorted)

|--------------------------------------|
|--------------------------------------|
|-9-7-9-7-9-11-12-12-------------12-11-| X 2
|-9-7-9-7-9-11-12-12-12-12-12-12-12-11-|
|-7-5-7-5-7--9-10-10-12-12-12-12-10--9-|
|--------------------10-10-10-10-------|

Pre verse:(distorted)

  pm________   ________     _________
|-------------------------------------------|
|-------------------------------------------|
|-9-99999999-9-99999999-9-9-999999999-9-9-9-|
|-9-99999999-9-99999999-9-9-999999999-9-9-9-|
|-7-77777777-7-77777777-7-7-777777777-7-7-7-|
|-------------------------------------------|

Verse:

|---------------------------------------
|---------------------------------------
|-9------7------9------11-12-11-7-9-----
|---------------------------------------
|---------------------------------------
|---------------------------------------

 ----------------------------|
 ----------------------------|
 -7------9-------11-12-11-12-|
 ----------------------------|
 ----------------------------|
 ----------------------------|

Pre chorus:

|------------------------------------------|
|------------------------------------------|
|-9-9-9-9-7-7-7-7-7-9-9-9-9-9-11-12-11-9-7-|
|-x-x-x-x-x-x-x-x-x-x-x-x-x-x--x--x--x-x-x-|
|-7-7-7-7-5-5-5-5-5-7-7-7-7-7--9-10--9-7-5-|
|------------------------------------------|

 ------------------------------------------|
 ------------------------------------------|
 -9-9-9-9-7-7-7-7-7-9-9-9-9-9---5-5----7-7-|
 -x-x-x-x-x-x-x-x-x-x-x-x-x-x---5-5----7-7-|
 -7-7-7-7-5-5-5-5-5-7-7-7-7-7---3-3----5-5-|
 ------------------------------------------|

1st Chorus:

|---------------------------------
|---------------------------------
|-9-7-9-------------------5-5-7-7-
|-9-7-9-222-5-5-5-7-5-7-5-5-5-7-7-
|-7-5-7-222-5-5-5-7-5-7-5-3-3-5-5-
|-------000-3-3-3-5-3-5-3---------

 ----------------------------------|
 ----------------------------------|
 -9-7-9----------------------------|
 -9-7-9-222-5-5-5-7-5-7-5--7-5-2-5-|
 -7-5-7-222-5-5-5-7-5-7-5--7-5-2-5-|
 -------000-3-3-3-5-3-5-3--5-3-0-3-|

Repeat intro.

2nd verse:
[ Tab from: http://www.guitartabs.cc/tabs/o/offspring/come_out_swinging_tab_ver_4.html ]
(A)
|----------------------------------------|
|----------------------------------------|
|-9------7------9------11-12-11-7-9------|
|----------------------------------------|
|----------------------------------------|
|----------------------------------------|

 (B)
|---------------------------------------------
|---------------------------------------------
|---------------------------------------------
|-2-2222222-5-55555555-7-77777777-7-777777777-
|-2-2222222-5-55555555-7-77777777-7-777777777-
|-0-0000000-3-33333333-5-55555555-5-555555555-

 ----------------------------------|
 ----------------------------------|
 --------------------------5-5-7-7-|
 -2-2222222-5-55555555-7-7-5-5-7-7-|
 -2-2222222-5-55555555-7-7-3-3-5-5-|
 -0-0000000-3-33333333-5-5---------|

2nd Chorus:

|---------------------------------|
|---------------------------------|
|-9-7-9-------------------5-5-7-7-|
|-9-7-9-222-5-5-5-7-5-7-5-5-5-7-7-| X 2
|-7-5-7-222-5-5-5-7-5-7-5-3-3-5-5-|
|-------000-3-3-3-5-3-5-3---------|

Pre bridge:

|--------------------------------|
|--------------------------------|
|-5------4---------7-----------9-|
|-5------4---------7-----------9-|
|-3------2---------5-----------7-|
|------------------------------0-|

|------------------------------------------|
|------------------------------------------|
|-9-9-9-9-7-7-7-7-7-9-9-9-9-9-11-12-11-9-7-|
|-x-x-x-x-x-x-x-x-x-x-x-x-x-x--x--x--x-x-x-|
|-7-7-7-7-5-5-5-5-5-7-7-7-7-7--9-10--9-7-5-|
|------------------------------------------|

|---------------------------------------------------
|---------------------------------------------------
|-9-9-9-9-9-5-5-5-5-5-----------7-7-7-7-7-----------
|-9-9-9-9-9-5-5-5-5-5-7-7-7-7-7-7-7-7-7-7-9-9-9-9-9-
|-7-7-7-7-7-3-3-3-3-3-7-7-7-7-7-5-5-5-5-5-9-9-9-9-9-
|---------------------5-5-5-5-5-----------7-7-7-7-7-

 -----------|
 -----------|
 -9-9-9-9-9-| X 4 (first 3 times play palm muted,
 -9-9-9-9-9-|      last one play without palm mute) 
 -7-7-7-7-7-|
 -----------|

3rd chorus:

|---------------------------------|
|---------------------------------|
|-9-7-9-------------------5-5-7-7-|
|-9-7-9-222-5-5-5-7-5-7-5-5-5-7-7-| X 3
|-7-5-7-222-5-5-5-7-5-7-5-3-3-5-5-|
|-------000-3-3-3-5-3-5-3---------|

Outro:

|-----------------------------|
|-----------------------------|
|-5----7----------------------|
|-5----7----7-5-7-5-7-5-2-5-2-|
|-3----5----7-5-7-5-7-5-2-5-2-|
|-----------5-3-5-3-5-3-0-3-0-|

That's it. 
:: Ultimate Guitar Archive :: 
http://www.ultimate-guitar.com 



Comments