Offspring - Come Out Swinging Chords & Tabs

 

Come Out Swinging Chords & Tabs

Offspring Chords & Tabs

Version: 1 Type: Tab 0 ratings
1 star 2 stars 3 stars 4 stars 5 stars
comments

Come Out Swinging Tab

   
Title: Come Out Swinging
Artist: The Offspring
CD: Conspiracy Of One

Tabbed by: the Goldsmith (zelda@unet.com.mk)
Date: 7.10.2000

Wow! I hope the entire album rocks like OP and this one do. This song has a heavy dose of Mota in it. It's also tuned down a full step, like Americana.

Intro1
F|-11-9-11-9-11-13-14-14-14-14-------14-13--|
C|-11-9-11-9-11-13-14-14-14-14-14-14-14-13--|
G|-9--7--9-7--9-11-12-12-12-12-14-14-12-11--|
D|-----------------------------12-12--------|
See? This riff is pure "moticity". Not really that hard to play, though.
[ Tab from: http://www.guitartabs.cc/tabs/o/offspring/come_out_swinging_tab.html ]
Intro2, ()=X4
F|-(11-11-11-11-11-11-11-11-11-11)-11-11-11\--|
C|-(11-11-11-11-11-11-11-11-11-11)-11-11-11\--|
G|-(-9--9--9--9--9--9--9--9--9--9)--9--9--9\--|
D|------m--m--m--m--------m--m----------------|

Pre-chorus, *=X6
F|--------------------------------------7-7-9-9--|
C|----------6-7-6-----------------------7-7-9-9--|
G|-9*-7*-9*-------7-9*-7*-9-9-9-9-9-9\5-5-5-7-7--|
D|-----------------------------------------------|

Chorus ("Don't turn away, don't turn away, come out swinging...")
F|-11-9-11-11---------------------7-7-9-9->
C|-11-9-11-11-7-7-7-7-7-7-7-9-9-7-7-7-9-9->
G|--9-7--9--9-7-7-7-7-7-7-7-9-9-7-5-5-7-7->
D|------------5-5-5-5-5-5-5-7-7-5--------->
("Dream away, dream away, as long as you're swinging strong...")
Comments