Offspring - Come Out Swinging Chords & Tabs

 

Come Out Swinging Chords & Tabs

Offspring Chords & Tabs

Version: 1 Type: Bass Tab 0 ratings
1 star 2 stars 3 stars 4 stars 5 stars
comments

Come Out Swinging Bass Tab

   
-------------------------------------------------------------------------------
			     Come out swinging - The offspring
-------------------------------------------------------------------------------

Tabbed By :zero is great man 

Tuning: EADG

| /  slide up
| \  slide down
| h  hammer-on
| p  pull-off
| ~  vibrato
| +  harmonic
| x  Mute note

Intro:
G|---------------0-0---------0---|
D|-2-2-0-2-0-2-4-----0-0-0-0---4-|
A|-------------------------------|(x4)
E|-------------------------------|

Pre-verse:
G|----------------------------------------|
D|-2-2--2-2-2--2-2-2--2-2-2-2-2-2-2-2-2-2-|
A|----------------------------------------|
E|----------------------------------------|

Verse:
G|----------------------------1-2------|
D|-4-4-4-4--2-2-2-2--4-4-4-4-------2-4-|
A|-------------------------------------|
E|-------------------------------------|
[ Tab from: http://www.guitartabs.cc/tabs/o/offspring/come_out_swinging_btab.html ]
Pre-chorus
G|-------------------------------0--------------------------------------------|
D|-2-2-2-2--0-0-0-0-2-2-2-2--4-4---4-2-0--2-2-2-2--0-0-0-0--2-2-2-2-----------|
A|-------------------------------------------------------------------3-3--5-5-|
E|----------------------------------------------------------------------------|

Chorus
G|-------------------------------------------------------------------------|
D|-2-2-0-2-----------------------------0-0--2-2-0-2------------------------|
A|-------------------------0---0---3-3-----------------------0-0-0-0-0-----|
E|---------0-0-0-0-3-3-3-3---3---3------------------0-0-0-0-3-3-3-3----3-0-|

Bridge
G|------------------------------------|
D|-------------------0-0-0-0----------|
A|-3-3-3-3--2-2-2-2-------------------|
E|----------------------------0-0-0-0-|

Outro
G|---------------------------------------|
D|------0-0------------------------------|
A|-3-3------0---0---0---0----------------|
E|------------3---3---3---3--0-0--3-3--0-|

===============================================================================
Comments