Offspring - Come Out And Play Chords & Tabs

 

Come Out And Play Chords & Tabs

Offspring Chords & Tabs

Version: 5 Type: Tab 4 ratings
1 star 2 stars 3 stars 4 stars 5 stars
comments

Come Out And Play Tab

Artist: Offspring
Song: Come Out and Play
Tabbed by: John Leadman


Key
---
/ = slide

intro harmonics
---------
---------
---------
---------
--7-7-7--
--7-7-7--

intro and chorus 2 - play 8x
----------------                            -----
----------------                            -----
--4-4-4-7------- on the last time, end with --4--
--4-4-4-7--4-7--                            --4--
--2-2-2-5--4-7--                            --2--
-----------2-5--                            -----

guitar 2 (Dexter) - play over the intro the 4th - 8th times
---------------------                            ------
---------------------                            ------
--11-11-11--14--9-9-- on the last time, end with --11--
---------------------                            ------
---------------------                            ------
---------------------                            ------
[ Tab from: http://www.guitartabs.cc/tabs/o/offspring/come_out_and_play_tab_ver_5.html ]
egyptian guitar riff - play 4x
------------------------------
------------------------------
------------------------------ leave off the last 3
------1-2-2/4-2-1------------- notes the 4th time
--2-3-------------3-2--2-3-2--
------------------------------
Note: Most people play this without the slide.  If you listen carefully, 
      Noodles does play the slide - he's better than most people give him 
      credit for.  If it's too hard for you, though, it'll sound OK 
      without it.

verse - play 4x
------------------------------
------------------------------
--4-4-4---------4-4-4-7-------
--4-4-4-4--4-7--4-4-4-7--4-7--
--2-2-2-4--4-7--2-2-2-5--4-7--
--------2--2-5-----------2-5--

chorus 1 ("The gangs stake out their own campus locale....") - play 2x
--------------------------------
--------------------------------
--9-9--12-12--11-11-11----------
--9-9--12-12--11-11-11--9-9-12--
--7-7--10-10---9--9--9--9-9-12--
------------------------7-7-10--
Note: Most tabs don't have the last note, but it's there.  Once again, 
      Noodles is better than most people think.

chorus 2 ("Hey, man ya talking back to me? Take em out...")
 Play the Intro 3x, end with the ending chord
 break for "Keep 'em separated" line
 play the intro 3x again
 pause for "keep 'em separated"
 then play the Intro once
 play this:
   ------------
   ------------
   ------------
   --4--4-4-4--
   --4--4-4-4--
   --2--2-2-2--
 then play the Intro again, ending with the ending chord.

bridge - not quite sure about this
--------------------------
--------------------------
--------------------------
--9-9-9-9--5-5-5-5-5-5-5--
--7-7-7-7--3-3-3-3-3-3-3--
--------------------------

Comments