Offspring - Come Out And Play Chords & Tabs

 

Come Out And Play Chords & Tabs

Offspring Chords & Tabs

Version: 11 Type: Tab 0 ratings
1 star 2 stars 3 stars 4 stars 5 stars
comments

Come Out And Play Tab

The Offspring
Come Out and Play

Tuning: Standard

Intro:
E|------------|
B|------------|
G|------------|  
D|-*5--*5--*5-|   
A|-*5--*5--*5-|   
E|-*5--*5--*5-|
PM  .   .

Pre Verse: 
E|---------------|
B|---------------|  
G|-4-4-4--7------|  X4
D|-4-4-4--7--4-7-|  
A|-2-2-2--5--4-7-|
E|-----------2-5-|

2nd Pre-Verse:
E|-------------------|
B|-------------------|
G|-11-11-11--14--9-9-|  X4
D|-11-11-11--14--9-9-|   
A|--9--9--9--12--7-7-|
E|-------------------|

Egyptian riff:
E|-------------------------|
B|-------------------------|
G|-------------------------|  X4
D|-------------------------|   
A|-----6-7-9-7-6-----------|
E|-7-8-----------8~~~8-8-7-|

Verse:
E|--------------|---------------|
B|--------------|---------------|  
G|-4-4-4--------|-4-4-4--7------|  X4
D|-4-4-4--4-4-7-|-4-4-4--7--4-7-|  
A|-2-2-2--4-4-7-|-2-2-2--5--4-7-|
E|--------2-2-5-|-----------2-5-|
PM . . .  . . .   . . .  .  . .

Pre-Chorus:
E|------------------------------|
B|------------------------------|  
G|-9-9--12-12--11-11-11---------|  X2
D|-9-9--12-12--11-11-11--9--9-9-|  
A|-7-7--10-10---9--9--9--9--9-9-|
E|-----------------------7--7-7-|

Verse:
E|--------------|---------------|
B|--------------|---------------|  
G|-4-4-4--------|-4-4-4--7------|
D|-4-4-4--4-4-7-|-4-4-4--7--4-7-|  
A|-2-2-2--4-4-7-|-2-2-2--5--4-7-|
E|--------2-2-5-|-----------2-5-|
PM . . .  . . .   . . .  .  . .

Bridge:
   1 + 2 + 3 + 4 +   1 + 2 + 3 + 4 +
E|-----------------|-----------------|
B|-----------------|-----------------|
G|-9-9-9-9-9-9-9-9-|-9-9-9-9-9-9-9-9-|
D|-9-9-9-9-9-9-9-9-|-9-9-9-9-9-9-9-9-|
A|-7-7-7-7-7-7-7-7-|-7-7-7-7-7-7-7-7-|
E|-----------------|-----------------|
[ Tab from: http://www.guitartabs.cc/tabs/o/offspring/come_out_and_play_tab_ver_11.html ]
Chorus:
E|---------------|
B|---------------|  
G|-4-4-4--7------|  X2
D|-4-4-4--7--4-7-|  
A|-2-2-2--5--4-7-|
E|-----------2-5-|
Chorus:
E|-----------------|
B|-----------------|  
G|-4-4-4--7--------|
D|-4-4-4--7--4-7-4-|  
A|-2-2-2--5--4-7-4-|
E|-----------2-5-2-|

Chorus:
E|---------------|
B|---------------|  
G|-4-4-4--7------|  X2
D|-4-4-4--7--4-7-|  
A|-2-2-2--5--4-7-|
E|-----------2-5-|

Chorus:
E|-----------------|
B|-----------------|  
G|-4-4-4--7------4-|
D|-4-4-4--7--4-7-4-|  
A|-2-2-2--5--4-7-2-|
E|-----------2-5---|

Chorus:
E|---------------|
B|---------------|  
G|-4-4-4--7------|  X2
D|-4-4-4--7--4-7-|  
A|-2-2-2--5--4-7-|
E|-----------2-5-|

2nd Bridge:
   1 + 2 + 3 + 4 +   1 + 2 + 3 + 4 +
E|-----------------|-----------------|
B|-----------------|-----------------|  
G|-9-9-9-9-9-9-9-9-|-5-5-5-5-5-5-5-5-|  
D|-9-9-9-9-9-9-9-9-|-5-5-5-5-5-5-5-5-|  
A|-7-7-7-7-7-7-7-7-|-3-3-3-3-3-3-3-3-|
E|-----------------|-----------------|

Chorus:
                1-2-3-4
E|---------------------|-----------------|
B|---------------------|-----------------|  
G|-4-4-4-7-------------|-4-4-4--7--------|
D|-4-4-4-7--4-7-2~~~~~~|-4-4-4--7--4-7-4-|  
A|-2-2-2-5--4-7-2~~~~~~|-2-2-2--5--4-7-4-|
E|----------2-5-0~~~~~~|-----------2-5-2-|

Egyptian riff:
E|-------------------------|
B|-------------------------|
G|-------------------------|  X4
D|-------------------------|   
A|-----6-7-9-7-6-----------|
E|-7-8-----------8~~~8-8-7-|

Verse (With Egyptian Riff)
E|--------------|---------------|
B|--------------|---------------|  
G|-4-4-4--------|-4-4-4--7------|  X8
D|-4-4-4--4-4-7-|-4-4-4--7--4-7-|  
A|-2-2-2--4-4-7-|-2-2-2--5--4-7-|
E|--------2-2-5-|-----------2-5-|
PM . . .  . . .   . . .  .  . .

Pre-Chorus:
E|------------------------------|
B|------------------------------|  
G|-9-9--12-12--11-11-11---------|  X2
D|-9-9--12-12--11-11-11--9--9-9-|  
A|-7-7--10-10---9--9--9--9--9-9-|
E|-----------------------7--7-7-|

Verse
Bridge
Chorus loop
2nd Bridge
Chorus
Egyptian Riff
Verse (With Egyptian Riff)
Pre-Chorus
Verse
Bridge
Chorus Loop


That's It...\m/(- -)\m/
Comments