Offspring - Can't Repeat Chords & Tabs

 

Can't Repeat Chords & Tabs

Offspring Chords & Tabs

Version: 9 Type: Tab 0 ratings
1 star 2 stars 3 stars 4 stars 5 stars
comments

Can't Repeat Tab

-------------------------------------------------------------------------------
			     Can't Repeat - The Offsrping
-------------------------------------------------------------------------------
Tabbed by:yeovil4eva
Email:dangardner90@hotmail.com

Tuning:standard eBGDAE

This is my first tab so applogies if its not that good.  Give me feedback as i
could do with knowing whats wrong

Main Riff
e|--------------------|--------------------|----------------|-------------------|
B|--------------------|--------------------|----------------|-------------------|
G|--------------------|--------------------|----------------|-------------------|
D|--------------------|--------------------|----------------|-------------------|
A|-12-10-10-7-7-5-5-7-|-12-10-10-7-7-5-5-7-|-15-14-12-10-12-|-15-14-12-10-12-10-|
E|--------------------|--------------------|----------------|-------------------|

Verse
   \/    \/    \/    \/     \/    \/    \/    \/
e|--------------------------------------------------|
B|--------------------------------------------------|
G|--------------------------55-5--55-5--55-5--55-5--|
D|-77-7--77-7--77-7--77-7---55-5--55-5--55-5--55-5--|
A|-77-7--77-7--77-7--77-7---33-3--33-3--33-3--33-3--|
E|-55-5--55-5--55-5--55 5---------------------------|
                                                        x2
   \/    \/    \/    \/    \/    \/    \/    \/
e|-------------------------------------------------|
B|-------------------------------------------------|
G|-------------------------------------------------|
D|-33-3--33-3--33-3--33-3--55-5--55-5--55-5--55-5--|
A|-33-3--33-3--33-3--33-3--55-5--55-5--55-5--55-5--|
E|-11-1--11-1--11-1--11-1--33-3--33-3--33-3--33-3--|
[ Tab from: http://www.guitartabs.cc/tabs/o/offspring/cant_repeat_tab_ver_9.html ]
Chorus
      \/               \/
e|--------------------------------|
B|--------------------------------|
G|------------------5--55---55555-|
D|-7--77---77777----5--55---55555-|
A|-7--77---77777----3--33---33333-|
E|-5--55---55555------------------|
      \/               \/                       x2
e|--------------------------------|
B|--------------------------------|
G|--------------------------------|
D|-3--33---33333----5--55---55555-|
A|-3--33---33333----5--55---55555-|
E|-1--11---11111----3--33---33333-|

Bridge
   \/    \/   \/     \/
e|------------------------|
B|------------------------|
G|------------------------| x4
D|-77-7--77-7--77-7--77-7-|
A|-77-7--77-7--77-7--77-7-|
E|-75-5--55-5--55-5--55-5-|

e|---------------------------------------------|
B|---------------------------------------------|
G|-----------55-----5----------------------5---|
D|-77------7-55-----5-33---3---3----3-5----5-5-|
A|-77------7-33-----3-33---3---3----3-5----3-5-|
E|-55------5----------11---1---1----1-3------3-|

Outro - I'm not sure about this bit
e|------------------------------|----------------------------------------|
B|------------------------------|----------------------------------------|
G|------------------------------|----------------------------------------|
D|---------2-2222-33-55-77-1010-|-15-15151515-14-14141414-15-14-12-10-12-|
A|-5-55555----------------------|----------------------------------------|
E|------------------------------|----------------------------------------|

   \/    \/    \/    \/ 
e|--------------------------|
B|--------------------------|
G|--------------------------| 
D|-77-7--77-7--77-7--77-7--7|
A|-77-7--77-7--77-7--77-7--7|
E|-75-5--55-5--55-5--55-5--5|

\ = down stroke
/ = up stroke

This is the order it goes in

Main Riff
Verse
Chorus
Main Riff
Verse
Chorus
Main Riff
Bridge
Outro

===============================================================================
Comments