Offspring - Can't Repeat Chords & Tabs

 

Can't Repeat Chords & Tabs

Offspring Chords & Tabs

Version: 6 Type: Tab 0 ratings
1 star 2 stars 3 stars 4 stars 5 stars
comments

Can't Repeat Tab

Start with Bass and then:

E]-----------------/-----------------/-8-7-5-3-5~~~~~~~~/-8-7-5-3-5-3-----/
B]-10-8-8-5-5-3-3-5/-10-8-8-5-5-3-3-5/------------------/-----------------/
G]-----------------/-----------------/------------------/-----------------/
D]-----------------/-----------------/------------------/-----------------/
A]-----------------/-----------------/------------------/-----------------/
E]-----------------/-----------------/------------------/-----------------/
[ Tab from: http://www.guitartabs.cc/tabs/o/offspring/cant_repeat_tab_ver_6.html ]
E]-----------------/-----------------/-8-7-5-3-5~~~~~~~~/-8-7-5-3-5-3-----/
B]-10-8-8-5-5-3-3-5/-10-8-8-5-5-3-3-5/------------------/-----------------/
G]-----------------/-----------------/------------------/-----------------/
D]-----------------/-----------------/------------------/-----------------/
A]-----------------/-----------------/------------------/-----------------/
E]-----------------/-----------------/------------------/-----------------/

And that's it for the intro,

Peace.
Comments