Offspring - Can't Repeat Chords & Tabs

 

Can't Repeat Chords & Tabs

Offspring Chords & Tabs

Version: 4 Type: Tab 0 ratings
1 star 2 stars 3 stars 4 stars 5 stars
comments

Can't Repeat Tab

Song: Can't repeat
Band: The offspring
Tabbed by: David Maillet

Standard tuning

*: palm mute
/: slide  (for this song, start the slides one fret before)


Intro: (0:14)
2x

e|----------------------------------------------|
B|----------------------------------------------|
G|-/14-12----------------/14-12-----------------|
D|--------14-14-12-12-14--------14-14-12-12-14--|
A|----------------------------------------------|
E|----------------------------------------------|
 
                                      Only 2nd time
e|-----------------------------------|-----|
B|-----------------------------------|-----|
G|-/13-12-----------/13--------------|-----|
D|--------14-12-/14-----14-12-/14-12-|-/14-|
A|-----------------------------------|-----|
E|-----------------------------------|-----|

Verse: (0:32)
2x

e|------------------------------------------------|
B|------------------------------------------------|
G|-----------------------55-5-55-5-55-5-55-5------|
D|--77-7-77-7-77-7-77-7--55-5-55-5-55-5-55-5------|
A|--77-7-77-7-77-7-77-7--33-3-33-3-33-3-33-3------|
E|--55-5-55-5-55-5-55-5--**---**---**---**--------|
    **   **   **   **
[ Tab from: http://www.guitartabs.cc/tabs/o/offspring/cant_repeat_tab_ver_4.html ]
e|------------------------------------------------|
B|------------------------------------------------|
G|------------------------------------------------|
D|-33-3-33-3-33-3-33-3--55-5-55-5-55-5-55-5-------|
A|-33-3-33-3-33-3-33-3--55-5-55-5-55-5-55-5-------|
E|-11-1-11-1-11-1-11-1--33-3-33-3-33-3-33-3-------|
   **   **   **   **    **   **   **   **

Chorus: (0:50)
2x

e|----------------------------------------|
B|----------------------------------------|
G|-------5--------------------------------|
D|-7-----5-x7--3-----5--------------------|
A|-7-x7--3-----3-x7--5-x7-----------------|
E|-5-----------1-----3--------------------|


Repeat in order: Intro  (1:08)
		 Verse  (1:26)
		 Chorus (1:45)
		 Intro  (2:03)
		 Verse  (2:21)

During bass solo at (2:39):

e|-----------------------------------------|
B|-----------------------------------------|
G|------5-5-----------------------5--------|
D|-7-7--5-5-3-3-33-3-33-3-33-3-5--5-5------|
A|-7-7--3-5-3-3-33-3-33-3-33-3-5--3-5------|
E|-5-5------1-1-11-1-11-1-11-1-3----3------|
                **   **   ** 

Repeat: Chorus (2:48)

Ending: (3:06) 

e|-----------------------------------------|
B|-----------------------------------------|
G|--2-4-5-7-9-12--/17-16-/17-16-14----/14--|
D|--2-4-5-7-7-12-------------------17------|
A|--0-2-3-5-7-9----------------------------|
E|-----------------------------------------|

e|-----------------------------------------|
B|-----------------------------------------|
G|-----------------------------------------|
D|-77-7-77-7-77-7-77-7-77-7-77-7-7---------|
A|-77-7-77-7-77-7-77-7-77-7-77-7-7---------|
E|-55-5-55-5-55-5-55-5-55-5-55-5-5---------|
   **   **   **   **   **   **
Comments