Offspring - Can't Repeat Chords & Tabs

 

Can't Repeat Chords & Tabs

Offspring Chords & Tabs

Version: 2 Type: Bass Tab 0 ratings
1 star 2 stars 3 stars 4 stars 5 stars
comments

Can't Repeat Bass Tab

   
Can't repeat- The offspring
Album: Greatest hits
Tabbed by: Alien
Email: conspiracy.of.smash@gmail.com

EDIT: OK I added to it now, I hope the rhythm in the intro and chorus makes sence.
ANyway, listen to it and you'll figure it out. For any more comments email me. Cheers.

Oh, and the 55's, 33's and 11's in the intro are 5's, 3's and 1's. 

/ : Slide up
Intro
G|--------------------------------------------------------------------------->
D|--------------------------------------------------------------------------->
A|---------------------------3--3-3--3-3-3--3-33-33-------------------------->
E|-/5--5-5--5-5-5--5--55-55--------------------------1--1-1--1-1-1--1-11-11-->

(continued)
G|--------------------------|
D|--------------------------|
A|--------------------------|
E|---3--3-3--3-3--3-3-33-33-|(x4)

Verse
G|----------------------------------------------------------------->
D|----------------------------------------------------------------->
A|---------------------------------3-3-3-3-3-3-3-3-3-3-3-3-3-3-3-3->
E|-5-5-5-5-5-5-5-5-5-5-5-5-5-5-5-5--------------------------------->
    I woke the other day            And saw my world has changed

G|-----------------------------------------------------------------|
D|-----------------------------------------------------------------|
A|-----------------------------------------------------------------|
E|-1-1-1-1-1-1-1-1-1-1-1-1-1-1-1-1-3-3-3-3-3-3-3-3-3-3-3-3-3-3-3-3-|
       The past is over but tom-    orrow's wishful thinking

G|----------------------------------------------------------------->
D|----------------------------------------------------------------->
A|---------------------------------3-3-3-3-3-3-3-3-3-3-3-3-3-3-3-3->
E|-5-5-5-5-5-5-5-5-5-5-5-5-5-5-5-5--------------------------------->
Can't hold onto what's been done  Can't grab onto what's to come (woah)
                             (woah)

G|-----------------------------------------------------------------|
D|-----------------------------------------------------------------|
A|-----------------------------------------------------------------|
E|-1-1-1-1-1-1-1-1-1-1-1-1-1-1-1-1-3-3-3-3-3-3-3-3-3-3-3-3-3-3-3-3-|
    And I'm just wishing I could    stop, but

Chorus 
G|----------------------------------------------->
D|----------------------------------------------->
A|------------------------3--3-3--3-3-3--3-33-33->
E|-5--5-5--5-5-5--5-55-55------------------------>
      Life goes on           Come of age

G|------------------------------------------------------------|
D|------------------------------------------------------------|
A|-8--8-8--8-8-8--8-88-88--10--10-10--10-10-10--10-1010-1010--|
E|------------------------------------------------------------|
      Can't hold on             Turn the page

G|----------------------------------------------->
D|----------------------------------------------->
A|------------------------3--3-3--3-3-3--3-33-33->
E|-5--5-5--5-5-5--5-55-55------------------------>
      Time rolls on        Wipe these eyes

G|------------------------------------------------------------|
D|------------------------------------------------------------|
A|-8--8-8--8-8-8--8-88-88--10--10-10--10-10-10--10-1010-1010--|
E|------------------------------------------------------------|
      Yesterday laughs        Tomorrow cries

Intro x2 (while the guitar part)

Verse
G|----------------------------------------------------------------->
D|----------------------------------------------------------------->
A|---------------------------------3-3-3-3-3-3-3-3-3-3-3-3-3-3-3-3->
E|-5-5-5-5-5-5-5-5-5-5-5-5-5-5-5-5--------------------------------->
       Memories are bittersweet    The good times we can't repeat 

G|-----------------------------------------------------------------|
D|-----------------------------------------------------------------|
A|-----------------------------------------------------------------|
E|-1-1-1-1-1-1-1-1-1-1-1-1-1-1-1-1-3-3-3-3-3-3-3-3-3-3-3-3-3-3-3-3-|
    Those days are gone and we can never get them back

G|----------------------------------------------------------------->
D|----------------------------------------------------------------->
A|---------------------------------3-3-3-3-3-3-3-3-3-3-3-3-3-3-3-3->
E|-5-5-5-5-5-5-5-5-5-5-5-5-5-5-5-5--------------------------------->
  Now we must move ahead (woah)    Despite our fear and dread (woah)

G|-----------------------------------------------------------------|
D|-----------------------------------------------------------------|
A|-----------------------------------------------------------------|
E|-1-1-1-1-1-1-1-1-1-1-1-1-1-1-1-1-3-3-3-3-3-3-3-3-3-3-3-3-3-3-3-3-|
   We're all just wishing we could stop, but      Life goes...
[ Tab from: http://www.guitartabs.cc/tabs/o/offspring/cant_repeat_btab_ver_2.html ]
G|----------------------------------------------->
D|----------------------------------------------->
A|------------------------3--3-3--3-3-3--3-33-33->
E|-5--5-5--5-5-5--5-55-55------------------------>
      ...on                Come of age

G|------------------------------------------------------------|
D|------------------------------------------------------------|
A|-8--8-8--8-8-8--8-88-88--10--10-10--10-10-10--10-1010-1010--|
E|------------------------------------------------------------|
      Can't hold on             Turn the page

G|----------------------------------------------->
D|----------------------------------------------->
A|------------------------3--3-3--3-3-3--3-33-33->
E|-5--5-5--5-5-5--5-55-55------------------------>
      Time rolls on        Wipe your eyes

G|------------------------------------------------------------|
D|------------------------------------------------------------|
A|-8--8-8--8-8-8--8-88-88--10--10-10--10-10-10--10-1010-1010--|
E|------------------------------------------------------------|
      Yesterday laughs        Tomorrow cries

G|-------------------------------------------------------------------------->
D|-------------------------------------------------------------------------->
A|--------------------------3--3-3--3-3-3--3-33-33-------------------------->
E|-5--5-5--5-5-5--5--55-55--------------------------1--1-1--1-1-1--1-11-11-->

G|--------------------------|
D|--------------------------|
A|--------------------------|
E|---3--3-3--3-3--3-3-33-33-|(x2)

G|----------------------------------------------------------------->
D|----------------------------------------------------------------->
A|---------------------------------3-3-3-3-3-3-3-3-3-3-3-3-3-3-3-3->
E|-5-5-5-5-5-5-5-5-5-5-5-5-5-5-5-5--------------------------------->

G|-----------------------------------------------------------------|
D|-----------------------------------------------------------------|
A|-----------------------------------------------------------------|
E|-1-1-1-1-1-1-1-1-1-1-1-1-1-1-1-1-3-3-3-3-3-3-3-3-3-3-3-3-3-3-3-3-|

Bridge
G|----------------------------------------------------------------------------->
D|----------------------------------------------------------------------------->
A|----------------------------3--3-3--3-3-3--3-33-33--------------------------->
E|-5--5-5--5-5-5--5--55-55-----------------------------1--1-1--1-1-1--1-11-11-->
With all our joys and fears Wrapped in forgotten years The past is laughin as

G|--------------------------|
D|--------------------------|
A|--------------------------|
E|---3--3-3--3-3--3-3-33-33-|
  ...today just slips away

G|----------------------------------------------------------------------------->
D|----------------------------------------------------------------------------->
A|----------------------------3--3-3--3-3-3--3-33-33--------------------------->
E|-5--5-5--5-5-5--5--55-55-----------------------------1--1-1--1-1-1--1-11-11-->
Time tears down what we've made And sets another stage And I'm just wishing..                   
                                                                   ..we could

G|----------|
D|----------|
A|------3---|
E|-3------3-|
 stop! Life goes...

G|----------------------------------------------->
D|----------------------------------------------->
A|------------------------3--3-3--3-3-3--3-33-33->
E|-5--5-5--5-5-5--5-55-55------------------------>
        ...on               Come of age

G|------------------------------------------------------------|
D|------------------------------------------------------------|
A|-8--8-8--8-8-8--8-88-88--10--10-10--10-10-10--10-1010-1010--|
E|------------------------------------------------------------|
      Can't hold on             Turn the page 

G|----------------------------------------------->
D|----------------------------------------------->
A|------------------------3--3-3--3-3-3--3-33-33->
E|-5--5-5--5-5-5--5-55-55------------------------>
      Time rolls on        Wipe these eyes

G|------------------------------------------------------------|
D|------------------------------------------------------------|
A|-8--8-8--8-8-8--8-88-88--10--10-10--10-10-10--10-1010-1010--|
E|------------------------------------------------------------|
      Yesterday laughs        Tomorrow cries

G|----------------------------------------------->
D|----------------------------------------------->
A|------------------------3--3-3--3-3-3--3-33-33->
E|-5--5-5--5-5-5--5-55-55------------------------>
   Time rolls on...

G|------------------------------------------------------------|
D|------------------------------------------------------------|
A|-8--8-8--8-8-8--8-88-88--10--10-10--10-10-10--10-1010-1010--|
E|------------------------------------------------------------|
                                                
Ending
G|--------------------------------------------|
D|--------------------------------------------|
A|--------------------------------------------|
E|-x-x-5--x-x-5--x-x-5--x-x-5--x-x-5--x-x-5-5-|
Comments