Offspring - Can't Repeat Chords & Tabs

 

Can't Repeat Chords & Tabs

Offspring Chords & Tabs

Version: 1 Type: Bass Tab 2 ratings
1 star 2 stars 3 stars 4 stars 5 stars
comments

Can't Repeat Bass Tab

   
#----------------------------------PLEASE NOTE---------------------------------#
#This file is the author's own work and represents their interpretation of the #
#song. You may only use this file for private study, scholarship, or research. #
#------------------------------------------------------------------------------#

Can't Repeat
Artist: The Offspring
Album: Greatest Hits
Tab By: atawb 
Tuning:(E A D G) 

/=Slide      
x= Mute
~=Ring

Intro Riff 1                         
G|-------|
D|-------|
A|-------|
E|--1/5--|
Riff 2
G|--------------------------------------------------------------------|
D|--------------------------------------------------------------------|
A|-----------------------------------3-3-3-3-3-3-3-3-3-3-3-3-3-3-3-3--|
E|--5-5-5-5-5-5-5-5-5-5-5-5-5-5-5-5-----------------------------------|
[ Tab from: http://www.guitartabs.cc/tabs/o/offspring/cant_repeat_btab.html ]
G|--------------------------------------------------------------------|
D|--------------------------------------------------------------------|
A|--------------------------------------------------------------------|x2
E|--1-1-1-1-1-1-1-1-1-1-1-1-1-1-1-1--3-3-3-3-3-3-3-3-3-3-3-3-3-3-3-3--|
                                                                                                
Interlude
G|--------------------------------------------------------------------|
D|--------------------------------------------------------------------|
A|-----------------------------------3-3-3-3-3-3-3-3-3-3-3-3-3-3-3-3--|
E|--5-5-5-5-5-5-5-5-5-5-5-5-5-5-5-5-----------------------------------|
                                  x2  Ending 1 x1                                
G|----------------------------------|----------------------------------|
D|----------------------------------|----------------------------------|
A|----------------------------------|----------------------------------|
E|--1-1-1-1-1-1-1-1-1-1-1-1-1-1-1-1-|-3-3-3-3-3-3-3-3-3-3-3-3-3-3-3-3--|

Ending 2 x1
G|------------|
D|------------|
A|-----3~-----|
E|--3-----3~--|

Outro
(Intro Riff 2 x1)

G|-----------------------------------------|
D|-----------------------------------------|
A|-----------------------------------------|
E|--x-x-5-x-x-5-x-x-5-x-x-5-x-x-5-x-x-5-5--|

Intro
Verse (Intro Riff 2 x4)
Chorus (Intro Riff 2 x2)
Verse (Intro Riff 2 x4)
Chorus (Intro Riff 2 x2) 
Verse( Intro Riff 2 x3)
Interlude
Chorus (Intro Riff 2 x2)
Outro
Comments