Offspring - Cant Get My Head Around You Chords & Tabs

 

Cant Get My Head Around You Chords & Tabs

Offspring Chords & Tabs

Version: 6 Type: Tab 0 ratings
1 star 2 stars 3 stars 4 stars 5 stars
comments

Cant Get My Head Around You Tab

   
-----------------------------------------------------------------------------
			     Can't Get My Head Around You - The Offspring
-----------------------------------------------------------------------------
Tabbed by: Clayton Pennington
Email: offspring_punk08@hotmail.com

Tuning:EADGBe

Intro  (Clean)
e|-0-0---0-0---0-0---0-0---------------------------------------------------|
B|-0-0---0-0---0-0---0-0---------------------------------------------------|
G|-1-1---1-1---1-1---1-1---------------------------------------------------|
D|-2-2---2-2---2-2---2-2---------------------------------------------------|
A|-2-2---2-2---2-2---2-2---------------------------------------------------|
E|-0-0---0-0---0-0---0-0---------------------------------------------------|

Pre-Verse (Clean) x4
e|-------------------------------------------------------------------------|
B|-------------------------------------------------------------------------|
G|------------------4--7-7-7-----------------------------------------------|
D|-2-2-2--4--5-5-5--4--7-7-7--5--7-7-7-------------------------------------|
A|-2-2-2--4--5-5-5--2--5-5-5--5--7-7-7-------------------------------------|
E|-0-0-0--2--3-3-3------------3--5-5-5-------------------------------------|
  |x x x  x  x x x  x  x x x  x  x x x|

Verse (Distorted) x4  
e|-------------------------------------------------------------------------|
B|-------------------------------------------------------------------------|
G|------------------4--7-7-7-----------------------------------------------|
D|-2-2-2--4--5-5-5--4--7-7-7--5--7-7-7-------------------------------------|
A|-2-2-2--4--5-5-5--2--5-5-5--5--7-7-7-------------------------------------|
E|-0-0-0--2--3-3-3------------3--5-5-5-------------------------------------|

Chorus 
e|-------------------------------------------------------------------------|
B|-------------------------------------------------------------------------|
G|-5-5-5-5-5-5-5-5-5-5-5-5-5-5-5-5-----------------------------------------|
D|-5-5-5-5-5-5-5-5-5-5-5-5-5-5-5-5--2-2--2-2--2-2--2-2---------------------|
A|-3-3-3-3-3-3-3-3-3-3-3-3-3-3-3-3--2-2--2-2--2-2--2-2---------------------|
E|----------------------------------0-0--0-0--0-0--0-0---------------------|

Chorus (Continued)
e|-------------------------------------------------------------------------|
B|-------------------------------------------------------------------------|
G|-5-5-5-5-5-5-5-5-5-5-5-5-5-5-5-5--7-7-7-7-7-7-7-7--4-4-4-4-4-4-4-4-------|
D|-5-5-5-5-5-5-5-5-5-5-5-5-5-5-5-5--7-7-7-7-7-7-7-7--4-4-4-4-4-4-4-4-------|
A|-3-3-3-3-3-3-3-3-3-3-3-3-3-3-3-3--5-5-5-5-5-5-5-5--2-2-2-2-2-2-2-2-------|
E|-------------------------------------------------------------------------|

Verse x4   
e|-------------------------------------------------------------------------|
B|--------------------------------------------4th time only----------------|
G|------------------4--7-7-7-----------(-----------------4--5-5-5-------)--|
D|-2-2-2--4--5-5-5--4--7-7-7--5--7-7-7-(2-2-2--4--5-5-5--4--5-5-5--7-7-7)--|
A|-2-2-2--4--5-5-5--2--5-5-5--5--7-7-7-(2-2-2--4--5-5-5--2--3-3-3--7-7-7)--|
E|-0-0-0--2--3-3-3------------3--5-5-5-(0-0-0--2--3-3-3------------5-5-5)--|

Solo x3 (Wah Pedal)
e|-------------------------------------------------------------------|
B|-------------------------------------------------------------------|
G|-12-12-12-12-12-12-12-12--19-19--14-14-(9-9-9-9-9-9-9-9)-----------|
D|-x--x--x--x--x--x--x--x---x--x---x--x--(x-x-x-x-x-x-x-x)-3rd time--|
A|-10-10-10-10-10-10-10-10--17-17--12-12-(7-7-7-7-7-7-7-7)-----------|
E|-------------------------------------------------------------------|
[ Tab from: http://www.guitartabs.cc/tabs/o/offspring/cant_get_my_head_around_you_tab_ver_6.html ]
Verse x3 (Played under solo)  
e|-------------------------------------------------------------------------|
B|-------------------------------------------------------------------------|
G|-----------------4--7-7-7------------------------------------------------|
D|-2-2-2--4--5-5-5--4--7-7-7--5--7-7-7--(2-2-2-2-2-2-2-2)------------------|
A|-2-2-2--4--5-5-5--2--5-5-5--5--7-7-7--(2-2-2-2-2-2-2-2)-3rd time only----|
E|-0-0-0--2--3-3-3------------3--5-5-5--(0-0-0-0-0-0-0-0)------------------|

Chorus 
e|-------------------------------------------------------------------------|
B|-------------------------------------------------------------------------|
G|-5-5-5-5-5-5-5-5-5-5-5-5-5-5-5-5-----------------------------------------|
D|-5-5-5-5-5-5-5-5-5-5-5-5-5-5-5-5--2-2--2-2--2-2--2-2---------------------|
A|-3-3-3-3-3-3-3-3-3-3-3-3-3-3-3-3--2-2--2-2--2-2--2-2---------------------|
E|----------------------------------0-0--0-0--0-0--0-0---------------------|

Chorus (Continued)
e|-------------------------------------------------------------------------|
B|-------------------------------------------------------------------------|
G|-5-5-5-5-5-5-5-5-5-5-5-5-5-5-5-5--7-7-7-7-7-7-7-7--4-4-4-4-4-4-4-4-------|
D|-5-5-5-5-5-5-5-5-5-5-5-5-5-5-5-5--7-7-7-7-7-7-7-7--4-4-4-4-4-4-4-4-------|
A|-3-3-3-3-3-3-3-3-3-3-3-3-3-3-3-3--5-5-5-5-5-5-5-5--2-2-2-2-2-2-2-2-------|
E|-------------------------------------------------------------------------|

Pre-Verse (Clean) x3
e|-------------------------------------------------------------------------|
B|-------------------------------------------------------------------------|
G|------------------4--7-7-7-----------------------------------------------|
D|-2-2-2--4--5-5-5--4--7-7-7--5--7-7-7-------------------------------------|
A|-2-2-2--4--5-5-5--2--5-5-5--5--7-7-7-------------------------------------|
E|-0-0-0--2--3-3-3------------3--5-5-5-------------------------------------|
  |x x x  x  x x x  x  x x x  x  x x x|

Verse x4   
e|-------------------------------------------------------------------------|
B|--------------------------------------------4th time only----------------|
G|------------------4--7-7-7-----------(-----------------4--5-5-5-------)--|
D|-2-2-2--4--5-5-5--4--7-7-7--5--7-7-7-(2-2-2--4--5-5-5--4--5-5-5--7-7-7)--|
A|-2-2-2--4--5-5-5--2--5-5-5--5--7-7-7-(2-2-2--4--5-5-5--2--3-3-3--7-7-7)--|
E|-0-0-0--2--3-3-3------------3--5-5-5-(0-0-0--2--3-3-3------------5-5-5)--|

Solo x3 (Wah Pedal)
e|-------------------------------------------------------------------|
B|-------------------------------------------------------------------|
G|-12-12-12-12-12-12-12-12--19-19--14-14-(9-9-9-9-9-9-9-9)-----------|
D|-x--x--x--x--x--x--x--x---x--x---x--x--(x-x-x-x-x-x-x-x)-3rd time--|
A|-10-10-10-10-10-10-10-10--17-17--12-12-(7-7-7-7-7-7-7-7)-----------|
E|-------------------------------------------------------------------|

Verse x3 (Played under solo)  
e|-------------------------------------------------------------------------|
B|-------------------------------------------------------------------------|
G|------------------4--7-7-7-----------------------------------------------|
D|-2-2-2--4--5-5-5--4--7-7-7--5--7-7-7--(2-2-2-2-2-2-2-2)------------------|
A|-2-2-2--4--5-5-5--2--5-5-5--5--7-7-7--(2-2-2-2-2-2-2-2)-3rd time only----|
E|-0-0-0--2--3-3-3------------3--5-5-5--(0-0-0-0-0-0-0-0)------------------|

That's it I'm pretty sure. Sounds good to me. Cut me a lil slack if it isn't
perfect 1st tab here. Well thanks for checkin it out!

| /  slide up
| \  slide down
| h  hammer-on
| p  pull-off
| ~  vibrato
| +  harmonic
| x  Mute note
=============================================================================
Comments