Offspring - Cant Get My Head Around You Chords & Tabs

 

Cant Get My Head Around You Chords & Tabs

Offspring Chords & Tabs

Version: 1 Type: Tab 2 ratings
1 star 2 stars 3 stars 4 stars 5 stars
comments

Cant Get My Head Around You Tab

   
#----------------------------------PLEASE NOTE---------------------------------#
#This file is the author's own work and represents their interpretation of the #
#song. You may only use this file for private study, scholarship, or research. #
#------------------------------------------------------------------------------#

Song: (Can't Get My) Head Around You
Artist: The Offspring
Album: Splinter (2003)
Tabbed by: Tom Cusic


e|--------------------------
B|--------------------------
G|-9-9-9-9-9-9-9-9----------
D|-9-9-9-9-9-9-9-9----------
A|-7-7-7-7-7-7-7-7----------
E|-0-0-0-0-0-0-0-0----------

e|---------------------------------
B|---------------------------------
G|---------------------------------
D|-----------------7-7-7-7---------
A|-2-2-2-2-5-5-5-5-5-5-5-5-7-7-7-7-
E|-0-0-0-0-3-3-3-3---------5-5-5-5-
p.m................................
[ Tab from: http://www.guitartabs.cc/tabs/o/offspring/cant_get_my_head_around_you_tab.html ]
Play that three times, and cut it on the first A5
on the fourth time round. Then hit the distortion!

Play the chords for the palm muted bit for the verse 
but w/o palm mute

Bridge

e|----------------------------------------------------
B|----------------------------------------------------
G|----------------------------------------------------
D|-5--------------------------------------------------
A|-3-x16--2-2------2-2------2-2------2-2--------------
E|--------0-0-rest-0-0-rest-0-0-rest-0-0-rest---------

e|--------------------------
B|--------------------------
G|--------------------------
D|-5-----7----4-------------
A|-3-x16-5-x8-2-x8----------
E|--------------------------
   
Chorus

E5 G5 D5 A5 progression again, on last one instead of A5 do B5. 
Then theres an octave riff that does the octaves of E5 (9th fret) 
B5 (14th fret) and A5 (12th fret) with wah rocking back and forth.

I think thats it
Comments