Offspring - Bloodstains Chords & Tabs

 

Bloodstains Chords & Tabs

Offspring Chords & Tabs

Version: 2 Type: Tab 0 ratings
1 star 2 stars 3 stars 4 stars 5 stars
comments

Bloodstains Tab

I know this song was originally performed by Agent Orange, but this version is much better.

: - let it ring

verse
[ Tab from: http://www.guitartabs.cc/tabs/o/offspring/bloodstains_tab_ver_2.html ]
|------------------------------------------------------------------------------
|------------------------------------------------------------------------------
|------------------------------------------------------------------------------
|-4-4-4-4-2/5--4-4-4-4-2/5--4-4-4-4-2/5--4-4-4-4-2/5--2-2-2-2-0/3--2-2-2-2-0/5-
|-4-4-4-4-2/5--4-4-4-4-2/5--4-4-4-4-2/5--4-4-4-4-2/5--2-2-2-2-0/3--2-2-2-2-0/5-
|-2-2-2-2-0/3--2-2-2-2-0/3--2-2-2-2-0/3--2-2-2-2-0/3--0-0-0-0-0/1--0-0-0-0-0/3-

 --------------------------|
 --------------------------|
 --------------------------|
 -4-4-4-4-2/5--4-4-4-4-2/5-|
 -4-4-4-4-2/5--4-4-4-4-2/5-|
 -2-2-2-2-0/3--2-2-2-2-0/3-|

chorus

|--------------------------------------------------------|
|--------------------------------------------------------|
|--------------------------------------------------------|
|-2:-----4-4-4-4-2/5--4-4-4-4-2/5--2:-----4-4-4-4-2/5--4-|
|-2:-----4-4-4-4-2/5--4-4-4-4-2/5--2:-----4-4-4-4-2/5--4-|
|-0:-----2-2-2-2-0/3--2-2-2-2-0/3--0:-----2-2-2-2-0/3--2-|

hope thats good enough.
e-mail = Bobby544@mail2rob.com
Comments