Offspring - Blackball Chords & Tabs

 

Blackball Chords & Tabs

Offspring Chords & Tabs

Version: 2 Type: Bass Tab 0 ratings
1 star 2 stars 3 stars 4 stars 5 stars
comments

Blackball Bass Tab

   
BTAB-Blackball by The Offspring
Album-The Offspring (1989/1994)
Tabbed By Big JC
*Member of The Bass Tab Archive Tab Army*

This has a really cool riff for the intro and the verses and it is very easy
to play. the Chorus is pretty hard to get the timing right so you will have
to listen to the CD to get it right. To all those fans out there here it is!


G |---------------------------------------------------------------------|
D |---------------------------------------------------------------------|
A |-------------------3-3-3-3-0-drums------------6-7-6------------6-7-6-|
E |-0-0-0-0-3-3-3-3--------------------7-7-7-7-7-------7-7-7-7-7--------|

Play this riff right through intro and verse and when you get to the chorus
play this

chorus:  (play twice)
[ Tab from: http://www.guitartabs.cc/tabs/o/offspring/blackball_btab_ver_2.html ]
G |---------------------------------------------------------------|
D |---------------------------------------------------------------|
A |-4-4-4-4-4-4-4-7-7-7-7-7-7-7-7---------------------------------|
E |-------------------------------7-7-7-7-7-7-7-7-5-5-5-5-5-5-5-5-|

Bridge

G |-----------------------------------------|
D |-----------------------------------------|
A |-10-10-10-10-10-10-10-10-8-8-8-8-8-8-8-8-|
E |-----------------------------------------|

G |-----------------------------------|
D |-----------------------------------|
A |-7---7-7-7-7-7-7/8---7-7-7-7-7-7/8-|
E |-----------------------------------|

G |-------------------------------------------------------|
D |-------------------------------------------------------|
A |-10-10-10-10-------------8-8-8-8---------7--7777-7-7/8-|
E |-------------10-10-10-10---------8-8-8-8---------------|

Do this a few times then back to the verse riff and then onto the chorus and
finish on a deep "E"
That's about it so go and learn this relly cool song and impress all your 
mates with the cool riff at the begining. If you need any other bass tabs 
e-mail me at "acegolfer@clark6969.fsnet.co.uk." and I'll try my best to get 
you those precious tabs you requested. Enjoy
Comments