Offspring - Baghdad Chords & Tabs

 

Baghdad Chords & Tabs

Offspring Chords & Tabs

Version: 1 Type: Tab 0 ratings
1 star 2 stars 3 stars 4 stars 5 stars
comments

Baghdad Tab

Artist: Offspring
Song: Baghdad
Tuning: Standard
Transcribed By: Frank T.
E-Mail: for_the_workforce182@myway.com

Questions or comments please e-mail me.


()=Hold Note/Let Ring
t.p=Tremelo Picking
//=Slide




Intro:
GTR II
E---(12)---------------------------------12t.p---------------
B---(12)---------------------------------12t.p---------------
G---(12)-----------------------------------------------------
D------------------------------------------------------------
A------------------------------------------------------------
E------------------------------------------------------------

Intro:
GTR I
E-------------------------------------------------------------------
B-------------------------------------------------------------------
G-------------------------------------------------------------------
D---(2)-------------------------------------------------------------
A---(2)-------------------------------------------------------------
E---(0)----------------------(0)---------------------------(0)------

GTR I
E------12------------------------------
B----------(12)------------------------
G--------------------------------------
D--------------------------------------
A--------------------------------------
E--------------------------------------

10x
GTR II
E----------------------------------------------
B------------10-10-9---------------------------
G----9-9-9-9---------10-9-9-9-9-7-7-9-9--------
D----------------------------------------------
A----------------------------------------------
E----------------------------------------------

1x
GTR I
E--------------------------------------------------------------------
B--------------------------------------------------------------------
G---9-9--(9)-------9-9--(9)-------(9)--(10)---(12)---(14)---(16)-----
D---9-9--(9)-------9-9--(9)-------(9)--------------------------------
A---7-7--(7)-------7-7--(7)-------(7)---(8)---(10)---(12)---(14)-----
E--------------------------------------------------------------------

E---------------------------------------------
B---------------------------------------------
G--(17)---(19)t.p-----------------------------
D---------------------------------------------
A--(15)---(17)t.p-----------------------------
E---------------------------------------------

GTR I
1x
E-12t.p-------------------------
B-12t.p-------------------------
G--9t.p---------------(9)-------
D-------------------------------
A-------------------------------
E-------------------------------

1x
GTR II/GTR I
E-------------------------------------------------------------------------
B-------------------------------------------------------------------------
G--------------10----------------12--------------14---------------16------
D-2-222-222-22-----2-222-222-22-----2-222-222-22----2-222-222-22----------
A-2-222-222-22--8--2-222-222-22--10-2-222-222-22-12-2-222-222-22--14------
E-0-000-000-00-----0-000-000-00-----0-000-000-00----0-000-000-00----------
  . ... ... ..     . ... ... ..     . ... ... ..    . ... ... ..
2x
GTR II
E-------------------------------------------------------------
B-----------10-12-12-12-12-10-9-9-9-9-------------------------
G--13-13-13----------------------------10-9-------------------
D-------------------------------------------------------------
A-------------------------------------------------------------
E-------------------------------------------------------------

4x
Verse:
GTR II/GTR I
E-------------------------
B-------------------------
G-------------------------
D-2-2-2-222---------------
A-2-2-2-222---------------
E-0-0-0-000---------------
  . . . ...

GTR II/GTR I
1x
E---------------------------------------
B---------------------------------------
G-------------------10------------------
D--7777777777777777---------------------
A--7777777777777777--8------------------
E--5555555555555555---------------------

GTR II/GTR I
2x
E-------------------------
B-------------------------
G-------------------------
D-2-2-2-222---------------
A-2-2-2-222---------------
E-0-0-0-000---------------
  . . . ...

1x
GTR II/GTR I
Chorus:
E---------------------------------------------------------------
B---------------------------------------------------------------
G------------------777777777777777-5555555555-777777777---------
D-5555555555555555-777777777777777-5555555555-777777777---------
A-5555555555555555-555555555555555-3333333333-555555555---------
E-3333333333333333----------------------------------------------
[ Tab from: http://www.guitartabs.cc/tabs/o/offspring/baghdad_tab.html ]
2x
GTR II
E-------------------------------------------------------------
B-----------10-12-12-12-12-10-9-9-9-9-------------------------
G--13-13-13----------------------------10-9-10-9--------------
D-------------------------------------------------------------
A-------------------------------------------------------------
E-------------------------------------------------------------

4x
Verse:
GTR II/GTR I
E-------------------------
B-------------------------
G-------------------------
D-2-2-2-222---------------
A-2-2-2-222---------------
E-0-0-0-000---------------
  . . . ...

GTR II/GTR I
1x
E---------------------------------------
B---------------------------------------
G-------------------10------------------
D--7777777777777777---------------------
A--7777777777777777--8------------------
E--5555555555555555---------------------

GTR II/GTR I
2x
E-------------------------
B-------------------------
G-------------------------
D-2-2-2-222---------------
A-2-2-2-222---------------
E-0-0-0-000---------------
  . . . ...

1x
GTR II/GTR I
Chorus:
E---------------------------------------------------------------
B---------------------------------------------------------------
G------------------777777777777777-5555555555-777777777---------
D-5555555555555555-777777777777777-5555555555-777777777---------
A-5555555555555555-555555555555555-3333333333-555555555---------
E-3333333333333333----------------------------------------------

1x
GTR II/GTR I
E-------------------------------------------------------------------------
B-------------------------------------------------------------------------
G--------------10----------------12--------------14---------------16------
D-2-222-222-22-----2-222-222-22-----2-222-222-22----2-222-222-22----------
A-2-222-222-22--8--2-222-222-22--10-2-222-222-22-12-2-222-222-22--14------
E-0-000-000-00-----0-000-000-00-----0-000-000-00----0-000-000-00----------
  . ... ... ..     . ... ... ..     . ... ... ..    . ... ... ..

2x
GTR II
E-------------------------------------------------------------
B-----------10-12-12-12-12-10-9-9-9-9-------------------------
G--13-13-13----------------------------10-9-10-9--------------
D-------------------------------------------------------------
A-------------------------------------------------------------
E-------------------------------------------------------------

GTR II/GTR I
12x
E-------------------------
B-------------------------
G-------------------------
D-2-2-2-222---------------
A-2-2-2-222---------------
E-0-0-0-000---------------
  . . . ...

1x
GTR II/GTR I
E--------------------------------------------------------
B--------------------------------------------------------
G---------------------------------10---------------------
D--77777777777777777777777777777-------------------------
A--77777777777777777777777777777---8---------------------
E--55555555555555555555555555555-------------------------

GTR II/GTR I
4x
E-------------------------
B-------------------------
G-------------------------
D-2-2-2-222---------------
A-2-2-2-222---------------
E-0-0-0-000---------------
  . . . ...

1x
GTR II/GTR I
Chorus:
E---------------------------------------------------------------
B---------------------------------------------------------------
G------------------777777777777777-5555555555-777777777---------
D-5555555555555555-777777777777777-5555555555-777777777---------
A-5555555555555555-555555555555555-3333333333-555555555---------
E-3333333333333333----------------------------------------------


GTR II/GTR I
E--------------------------------------------------------
B--------------------------------------------------------
G--9999999-5555555-----99999999-555555555----------------
D--9999999-5555555-2x--99999999-555555555---2------------
A--7777777-3333333-----77777777-333333333---2------------
E-------------------------------------------0------------


GTR II
E-------------------------------------------------------------
B-----------10-12-12-12-12-10-9-9-9-9-------------------------
G--13-13-13----------------------------10-9-10-9--------------
D-------------------------------------------------------------
A-------------------------------------------------------------
E-------------------------------------------------------------

E----------------------------------------------------------------
B-----------10-12-12-12-12-10-9-9-9-9----------------------------
G--13-13-13----------------------------10-9-10-9////-------------
D----------------------------------------------------------------
A----------------------------------------------------------------
E----------------------------------------------------------------
Comments