Offspring - Bad Habit Chords & Tabs

 

Bad Habit Chords & Tabs

Offspring Chords & Tabs

Version: 6 Type: Bass Tab 0 ratings
1 star 2 stars 3 stars 4 stars 5 stars
comments

Bad Habit Bass Tab

Song: Bad Habit
Artist: The Offspring
Album: Ixnay On The Hombre
Tabbed By: SeepZ (hypercobra69@hotmail.com)
Tuning: Standard

I'm pretty sure this tab is perfect, may have missed a note or 2, but hey, its all the same to me...


INTRO 1

G-----2---------------------------------------------------------------------
D---------------------------------------------------------------------------
A---0-----------------------------------------------------------------------
E-3-----3h5-5---------------------------------------------------------------

INTRO 2

G---------------------------------------------------------------------------
D-----2---4-----------------------------------------------------------------
A---------------------------------------------------------------------------
E-0-3---2-------------------------------------------------------------------

PRE-VERSE

G---------------------------------------------------------------------------
D---------------------------------------------------------------------------
A-0~-000~-00----------------------------------------------------------------
E---------------------------------------------------------------------------

VERSE
[ Tab from: http://www.guitartabs.cc/tabs/o/offspring/bad_habit_btab_ver_6.html ]
G---------------------------------------------------------------------------
D---------------------------------------------------------------------------
A-035-432-030-000-----------------------------------------------------------
E---------------------------------------------------------------------------

PRE-CHORUS

G---------------------------------------------------------------------------
D---------------------------------------------------------------------------
A-3333333333333333-55555555-77777777----------------------------------------
E---------------------------------------------------------------------------

CHORUS

G---------------------------------------------------------------------------
D----23---------------------------------------------------------------------
A-00----335-555-7777--------------------------------------------------------
E---------------------------------------------------------------------------

BRIDGE

G---------------------------------------------------------------------------
D-77-6-55-210---------------------------------------------------------------
A-------------320-----------------------------------------------------------
E---------------------------------------------------------------------------

STRUCTURE:

INTRO 1 x6
INTRO 2 X1
PREVERSE X1
VERSE X2
PRE-CHORUS X1
CHORUS X6
PRE-VERSE X1
VERSE X2
PRE-CHORUS X1
CHORUS X6
BRIDGE X4
PRE-CHORUS X1
CHORUS X8
Comments