Offspring - Americana Chords & Tabs

 

Americana Chords & Tabs

Offspring Chords & Tabs

Version: 7 Type: Tab 0 ratings
1 star 2 stars 3 stars 4 stars 5 stars
comments

Americana Tab

   
-------------------------------------------------------------------------------
			     Americana - the offspring
-------------------------------------------------------------------------------
Tabbed by:Niall
Email:
 this is ma first tab hope it helps ya
Tuning: E,B,G,D,G,D
         drum intro.........
e|---------------------------------------------------------------------------|
B|---------------------------------------------------------------------------|
G|---------------------------------------------------------------------------|
D|---------------------------------------------------------------------------|   8 times
G|---------------------------0--2^--20---------------------------------------|
D|------------------------------------2-022----------------------------------|
    verse (main riff)
e|---------------------------------------------------------------------------|
B|---------------------------------------------------------------------------|
G|----9-7-9---12-14-12---9-7-9---12-14-12----9\------------------------------|
D|----9-7-9---12-14-12---9-7-9---12-14-12----9\------------------------------|   2 times
G|----9-7-9---12-14-12---9-7-9---12-14-12----9\------------------------------|
D|---------------------------------------------------------------------------|
  
e|---------------------------------------------------------------------------|
B|---------------------------------------------------------------------------|
G|----9------12----14-----5-5-7-7---9--4--9---9-7-9-12-14-12--9--------------|
D|----9------12----14-----5-5-7-7---9--4--9---9-7-9-12-14-12--9--------------|
G|----9------12----14-----5-5-7-7---9--4--9---9-7-9-12-14-12--9--------------|
D|---------------------------------------------------------------------------|
       chorus                             1st time     2nd time
e|-------------------------------------------/------/------------------------|
B|-------------------------------------------/------/------------------------|
G|----------------7------------9-------------/-4--5-/---9-9-9-7-9-9-9--------|
D|----------------7-(times 4)--9--(times 4)--/-4--5-/---9-9-9-7-9-9-9--------|    2 times
G|-7---(times 4)--7------------9-------------/-4--5-/---9-9-9-7-9-9-9--------|
D|-5-----------------------------------------/------/------------------------|
      play verse and chorus again afta that
e|---------------------------------------------------------------------------|
B|---------------------------------------------------------------------------|
G|------9---7-9--------------------------------------------------------------|
D|------9---7-9--------------------------------------------------------------|
G|------9---7-9--------------------------------------------------------------|
D|---------------------------------------------------------------------------|
         play verse again then this 4 da chorus
e|---------------------------------------------------------------------------|
B|---------------------------------------------------------------------------|
G|-----------------8----------10------------5-6-----10-10-10-8-10-10-10------|
D|-----------------8-(times 4)10-(times 4)--5-6-----10-10-10-8-10-10-10------|
G|------8-(times 4)8----------10------------5-6-----10-10-10-8-10-10-10------|
D|------6--------------------------------------------------------------------|
    i think this is right it sounds right listen to the song 4 da strumming patterns

| /  slide up
| \  slide down
| h  hammer-on
| p  pull-off
| ~  vibrato
| +  harmonic
| x  Mute note
===============================================================================
[ Tab from: http://www.guitartabs.cc/tabs/o/offspring/americana_tab_ver_7.html ]
Comments