Offspring - Americana Chords & Tabs

 

Americana Chords & Tabs

Offspring Chords & Tabs

Version: 5 Type: Tab 0 ratings
1 star 2 stars 3 stars 4 stars 5 stars
comments

Americana Tab

   
 ~  let it ring (not vibrato, it means ring for me)
 b  bend
pm  palm mute

A Drum'in intro then guitar.

|-------------------------|
|-------------------------|
|-------------------------|
|-------------------------|
|-------------------------|
|-3~---5b~---3-0-0--0-0-0-|
                   |_____|
                  play this bit slightly harder 
verse

|------------------------------------------------------------------
|------------------------------------------------------------------
|-9-7-9-12-14-12-9-7-9-12-14-12------9-7-9-12-14-12-9-7-9-12-14-12-
|-9-7-9-12-14-12-9-7-9-12-14-12-2~---9-7-9-12-14-12-9-7-9-12-14-12-
|-7-5-7-10-12-10-7-5-7-10-12-10-2~---7-5-7-10-12-10-7-5-7-10-12-10-
|-------------------------------0~---------------------------------

-------------------------------------------------------------------------
-------------------------------------------------------------------------
-------------------------------------------------5-5-5-5-5-5-7-7-7-7-7-7-
-2-2-2-2-2-2-2-2-5-5-5-5-5-5-5-5-7-7-7-7-7-7-7-7-5-5-5-5-5-5-7-7-7-7-7-7-
-2-2-2-2-2-2-2-2-5-5-5-5-5-5-5-5-7-7-7-7-7-7-7-7-3-3-3-3-3-3-5-5-5-5-5-5-
-0-0-0-0-0-0-0-0-3-3-3-3-3-3-3-3-5-5-5-5-5-5-5-5-------------------------

--------------------------------------------------|
--------------------------------------------------|
-9-9-9-9-9-9-9-9-----------------9-7-9-12-14-12-9-|
-9-9-9-9-9-9-9-9-9-9-9-9-9-9-9-9-9-7-9-12-14-12-9-|
-7-7-7-7-7-7-7-7-9-9-9-9-9-9-9-9-7-5-7-10-12-10-7-|
-----------------7-7-7-7-7-7-7-7------------------|

chorus
[ Tab from: http://www.guitartabs.cc/tabs/o/offspring/americana_tab_ver_5.html ]
|---------------------------------------------------------------------|
|---------------------------------------------------------------------|
|---------7-7-7-7-9-9-9-9-4-5-5-5-5---------7-7-7-7-9-9-9-9-7-9-9-9-9-|
|-5-5-5-5-7-7-7-7-9-9-9-9-4-5-5-5-5-5-5-5-5-7-7-7-7-9-9-9-9-7-9-9-9-9-|
|-5-5-5-5-5-5-5-5-7-7-7-7-2-3-3-3-3-5-5-5-5-5-5-5-5-7-7-7-7-5-7-7-7-7-|
|-3-3-3-3---------------------------3-3-3-3---------------------------|



|-------------------------------------|
|-------------------------------------|
|-12-12-12-12-7-7-7-7-9-9-9-9-9-9-9-9-|
|-12-12-12-12-7-7-7-7-9-9-9-9-9-9-9-9-|
|-10-10-10-10-5-5-5-5-7-7-7-7-7-7-7-7-|
|-------------------------------------|

|-----------------------|
|-----------------------|
|-9---7-9----7-9--------|
|-9---7-9----7-9--------|
|-7---5-7----5-7--------|
|-----------------------|



|-------------------------------------------------------------------
|-------------------------------------------------------------------
|---------8-8-8-8-10-10-10-10-5-6-6-6-6---------8-8-8-8-10-10-10-10-
|-6-6-6-6-8-8-8-8-10-10-10-10-5-6-6-6-6-6-6-6-6-8-8-8-8-10-10-10-10-
|-6-6-6-6-6-6-6-6--8--8--8--8-3-4-4-4-4-6-6-6-6-6-6-6-6--8--8--8--8-
|-4-4-4-4-------------------------------4-4-4-4---------------------

---------------|
---------------|
-8-10-10-10-10-|
-8-10-10-10-10-|
-6--8--8--8--8-|
---------------|



|-----------------------------------------------------------------
|-----------------------------------------------------------------
|-13-13-13-13-8-8-8-8-10-10-10-10-10-10-10-10-13-13-13-13-8-8-8-8-
|-13-13-13-13-8-8-8-8-10-10-10-10-10-10-10-10-13-13-13-13-8-8-8-8-
|-11-11-11-11-6-6-6-6--8--8--8--8--8--8--8--8-11-11-11-11-6-6-6-6-
|-----------------------------------------------------------------

-------------------------|
-------------------------|
-10-10-10-10-10-10-10-10-|
-10-10-10-10-10-10-10-10-|
--8--8--8--8--8--8--8--8-|
-------------------------|

hope thats alriht for you.
e-mail = bobby544@mail2rob.com
Comments