Offspring - Americana Chords & Tabs

 

Americana Chords & Tabs

Offspring Chords & Tabs

Version: 2 Type: Bass Tab 0 ratings
1 star 2 stars 3 stars 4 stars 5 stars
comments

Americana Bass Tab

Intro
G|---------------------|
D|---------------------|
A|---------------------|
E|-4---6---6-4-0--0/11-|

Verses I
G|-------------|
D|---------8-6-|
A|-8---6-8-----|
E|---6---------|
[ Tab from: http://www.guitartabs.cc/tabs/o/offspring/americana_btab_ver_2.html ]
Verse II
G|----------------------------------------------|
D|-33333----------------------1111-33333--------|
A|---------------11111-44444-------------33333--|
E|---------44444--------------------------------|

Chorus
G|------------------------------------|
D|------------------------------------|
A|----66-88--88-6-4----6-8--88/6/8888-|
E|-44----------------44---------------|

Last Chorus
G|-----------------------------------|
D|-----------------------------------|
A|----77--99-99-7-5---7-9--7/999/7/8-|
E|-55---------------44---------------|
Comments