Offspring - Amazed Chords & Tabs

 

Amazed Chords & Tabs

Offspring Chords & Tabs

Version: 1 Type: Bass Tab 0 ratings
1 star 2 stars 3 stars 4 stars 5 stars
comments

Amazed Bass Tab

   
Artist: The Offspring
Song: Amazed
Album: Ixnay On The Hombre
Tabbed By: Ba$$ Lizard
*Member Of The Bass Tab Archive Tabbing Army*

A pretty cool, relatively easy song.

After Drums:

Main Riff

G:-------------------------------------------------------------------
D:-------------------------------------------------------------------
A:---------------------------5--5--5-5-5--3--3--3-3-3----------------
E:-5--5--5-5-5--3--3--3-3-3------------------------------------------ 6X, then

Verse Fill

G:-------
D:-------
A:-------
E:-0-1-3- 1X, then

Main Riff 4X, then

Chorus:
[ Tab from: http://www.guitartabs.cc/tabs/o/offspring/amazed_btab.html ]
G:----------------------------------------------------------------------
D:----------------------------------------------------------------------
A:-------3-3-3/7-7-7-7-7-7-7-7-7-------------------5-5-5-5-3-3-3-3------
E:-5-5-3-------------------------3-3-3-3-3-3-3-3------------------------ 4X, then

Play the Main Riff 4X
Play the Verse Fill 1X
Play Main RIff 4X
Play Chorus 4X
Play Main Riff 3X, then

G:----------------------------------------------------------------------------
D:--------------------------------------------------------------------------5-
A:---------------------------------5-5-5-5-5-5-5---3-3-3-3-3-3-3-3-----7--7---
E:-5-5-5-5-5-5-5-0-3-3-3-3-3-3-3-5---------------5-----------------5--5------- 1X, then

Play Chorus 4X
Play Main Riff 2X

End on E:-(5)-

()= Let Ring

Comments