Offspring - All I Want Chords & Tabs

 

All I Want Chords & Tabs

Offspring Chords & Tabs

Version: 7 Type: Tab 0 ratings
1 star 2 stars 3 stars 4 stars 5 stars
comments

All I Want Tab

|---------------------------------------------------------------------------|
|------------------------------- OFFSPRING ---------------------------------|
|---------------------------------------------------------------------------|

song: all i want
band: offspring
album: ixnay on the hombree, columbia records 1997

Intro

yeah yeah yeah yeah

e|--------------------------|
B|--------------------------|
G|--1111-9-1111-11-777-999--|
D|--1111-9-1111-11-777-999--|
A|---9-9-7--9-9--9-555-777--|
E|--------------------------|

e|--------------------------|
B|--------------------------|
G|--1111-9-1111-11-777-14-9-|
D|--1111-9-1111-11-777-14-9-|
A|---9-9-7--9-9--9-555-12-7-|
E|--------------------------|

Verse
[ Tab from: http://www.guitartabs.cc/tabs/o/offspring/all_i_want_tab_ver_7.html ]
e|-----------------------------|
B|-----------------------------|
G|--------------------777-14-9-|
D|--44-2-4-----44-2-4-777-14-9-|  2X
A|--44-2-4-----44-2-4-555-12-7-|
E|--22-0-2-----22-0-2----------|

BRIDGE

e|-------------------------------|
B|-------------------------------|
G|--1111111111-77777-------99999-|
D|--1111111111-77777-77777-99999-| 2X
A|---9-9-9-9-9-55555-77777-77777-|
E|-------------------55555-------|

CHORUS

THE CHORUS IS JUST LIKE THE BRIDGE

BRIDGE (LIKE THE INTRO)

I DONT KNOW WHAT TO CALL THIS PART SO I CALL IT "THE SLOW PART"
e|--------------------------------------------|
B|--------------------------------------------|
G|--777-9-111111-9-777-9999-77777777-66666666-|
D|--777-9-111111-9-777-9999-77777777-66666666-|
A|--555-7--9-9-9-7-555-7777-55555555-44444444-|
E|--------------------------------------------|

THE SONG GOES LIKE THIS

INTRO
VERSE
BRIDGE
CHORUS
BRIDGE(INTRO)
VERSE
BRIDGE
CHORUS 
"THE SLOW PART"
BRIDGE
CHORUS

Thats it!! hope you like it!!
Comments