Offspring - All I Want Chords & Tabs

 

All I Want Chords & Tabs

Offspring Chords & Tabs

Version: 5 Type: Tab 0 ratings
1 star 2 stars 3 stars 4 stars 5 stars
comments

All I Want Tab

All I Want 
Offspring


You will have to find the rythm

INTRO 
---- --- ---- --- --- ---- --- ---- --- ---- ---
---- --- ---- --- --- ---- --- ---- --- ---- ---
-10- -8- -10- -6- -8- -10- -8- -10- -6- -13- -8-
-10- -8- -10- -6- -8- -10- -8- -10- -6- -13- -8-
-8-- -6- -8-- -4- -6- -8-- -6- -8-- -4- -11- -6-
---- --- ---- --- --- ---- --- ---- --- ---- ---

VERSE
---- --- ----                                                  
---- --- ----                   
-10- -8- -10- 
-10- -8- -10-  
-8-- -6- -8-- 
---- --- ---- 
 pm   pm  pm

Then, 

No guitar, only bass

Then 
---- --- ---- --- ---- ---
---- --- ---- --- ---- ---
-10- -8- -10- -6- -13- -8-
-10- -8- -10- -6- -13- -8-
-8-- -6- -8-- -4- -11- -6-
---- --- ---- --- ---- ---
 pm   pm  pm


CHORUS
---- --- --- --- --- 
---- --- --- --- --- 
-10- -8- -6- --- -8-     
-10- -8- -6- -6- -8-     
-8-- -6- -4- -6- -6- 
---- --- --- -4- --- 

BRIDGE
--- --- ---- --- --- --- --- ---
--- --- ---- --- --- --- --- ---
-6- -8- -10- -8- -6- -8- -6- -5-
-6- -8- -10- -8- -6- -8- -6- -5-
-4- -6- -8-- -6- -4- -6- -4- -3-
--- --- ---- --- --- --- --- ---

CHORUS(2)
---- --- --- ---- --- --- ---- --- --- --- --- ----
---- --- --- ---- --- --- ---- --- --- --- --- ----
-10- -8- -6- -10- -8- -6- -10- -8- -6- --- -8- -10-
-10- -8- -6- -10- -8- -6- -10- -8- -6- -6- -8- -10-
-8-- -6- -4- -8-- -6- -4- -8-- -6- -4- -6- -6- -8--
---- --- --- ---- --- --- ---- --- --- -4- --- ----
[ Tab from: http://www.guitartabs.cc/tabs/o/offspring/all_i_want_tab_ver_5.html ]
YA YA YA YA YA
INTRO
VERSE X 2
CHORUS X4
INTRO
VERSE X 2
CHORUS X 2
CHORUS(2) 
YA YA YA YA YA 

pm = PALM MUTE

-----------------------------
Subject: Tab for "All I Want"
by the Offspring


This was the first single of Ixnay.
It's really easy too.

Intro:
E------------------------------------------|
B------------------------------------------|
G--11-11-11-9--11-11-11---7-7-7-7--9-9-9-9-|
D--11-11-11-9--11-11-11---7-7-7-7--9-9-9-9-|
A--9--9--9--7--9--9--9----5-5-5-5--7-7-7-7-|
E------------------------------------------|


Verse
E----------------------------------------------------|
B----------------------------------------------------|
G------------------------------------7-7-7-7--9-9-9-9|
D--4-4-4-4-4-4-4------4-4-4-4-4-4-4--7-7-7-7--9-9-9-9|
A--4-4-4-4-4-4-4------4-4-4-4-4-4-4--5-5-5-5--7-7-7-7|
E--2-2-2-0-2-2-2------2-2-2-0-2-2-2------------------|

Chorus

E-----------------------------------------
B-----------------------------------------
G-11-11-11-11-11-11-11-11--7-7-7-7-7-7-7-7
D-11-11-11-11-11-11-11-11--7-7-7-7-7-7-7-7
A-9--9--9--9--9--9--9--9---5-5-5-5-5-5-5-5
E-----------------------------------------

E---------------------------------|
B---------------------------------|
G------------------9-9-9-9-9-9-9-9|
D-7-7-7-7-7-7-7-7--9-9-9-9-9-9-9-9|
A-7-7-7-7-7-7-7-7--7-7-7-7-7-7-7-7|
E-5-5-5-5-5-5-5-5-----------------|

Bridge:*

E----------------------------|
B----------------------------|
G-7-7-9--11-11-9--7-7-9--7--6|
D-7-7-9--11-11-9--7-7-9--7--6|
A-5-5-7--9--9--7--5-5-7--5--4|
E----------------------------|

NOTE: The Last D chord and C# in the bridge are played 16 times each


Comments