Offspring - All I Want Chords & Tabs

 

All I Want Chords & Tabs

Offspring Chords & Tabs

Version: 4 Type: Tab 0 ratings
1 star 2 stars 3 stars 4 stars 5 stars
comments

All I Want Tab

   
#----------------------------------PLEASE NOTE---------------------------------#
#This file is the author's own work and represents their interpretation of the #
#song. You may only use this file for private study, scholarship, or research. #
#------------------------------------------------------------------------------#

All I Want
The Offspring
Done by Daz Taylor.

ive seen afew tabs for this song on here
and there all wank...
i would say this is 100% correct!!!!!!

/ = Slide                      |...PM...| = Palme Mute
ok......YA YA YA YA YA!

INTRO:

x1
e------------------------------------------------------------|
B------------------------------------------------------------|
G-10-10-/-8-8-/-10-10-/-6-6-/-8-/-10-/-10-/-10-/6-6-/-13-/-8-|
D-10-10-/-8-8-/-10-10-/-6-6-/-8-/-10-/-10-/-10-/6-6-/-13-/-8-|
A-8--8-/--6-6-/-8--8-/--4-4-/-6-/-8-/--6-/--8-/-4-4-/-11-/-6-|
E------------------------------------------------------------|

VERSE:

e--------------------------------------------------------------------|
B--------------------------------------------------------------------|
G-|....PM.....|---------|....PM.....|----------6-6--/--13-/--8-------|
D-4-4-4-4-4-4-4---------4-4-4-4-4-4-4----------6-6--/--13-/--8-------|
A-4-4-4-4-4-4-4---------4-4-4-4-4-4-4----------4-4--/--11-/--6-------|
E-2-2-2-0-2-2-2---------2-2-2-0-2-2-2--------------------------------|
(Day after day.)   

e------------------------------------------------------------------|
B------------------------------------------------------------------|
G-|....PM.....|---------|....PM.....|----------6-6--/--13-/--8-----|
D-4-4-4-4-4-4-4---------4-4-4-4-4-4-4----------6-6--/--13-/--8-----|
A-4-4-4-4-4-4-4---------4-4-4-4-4-4-4----------4-4--/--11-/--6-----|
E-2-2-2-0-2-2-2---------2-2-2-0-2-2-2------------------------------|
(You get no respect) 

CHORUS:

e---------------------|----------------------|
B---------------------|----------------------|
G-11-11-11-11-11-11---|-----7-7-7-7-7-7------|
D-11-11-11-11-11-11---|-----7-7-7-7-7-7------|
A-9--9--9--9--9--9----|-----5-5-5-5-5-5------|
E---------------------|----------------------|
(So back off your rules)

e-----------------------------|-------------------|
B-----------------------------|-------------------|
G-----------------------------|------9-9-9-9-9-9--|
D-------7-7-7-7-7-7-----------|------9-9-9-9-9-9--|
A-------7-7-7-7-7-7-----------|------7-7-7-7-7-7--|
E-------5-5-5-5-5-5-----------|-------------------|
(Cause I'm sick of not living)    

e---------------------|-----------------------|
B---------------------|-----------------------|
G-11-11-11-11-11-11---|------7-7-7-7-7-7------|
D-11-11-11-11-11-11---|------7-7-7-7-7-7------|
A-9--9--9--9--9--9----|------5-5-5-5-5-5------|
E---------------------|-----------------------|
  (Leave me alone)    

e-----------------------------------|
B-----------------------------------|
G-----------------------9-9-9-9-9-9-|
D-7-7-7-7-7-7-----------9-9-9-9-9-9-|
A-7-7-7-7-7-7-----------7-7-7-7-7-7-|
E-5-5-5-5-5-5-----------------------|
(I just don't want to be controlled)


e----------------------------------------------------------|
B----------------------------------------------------------|
G-11-11-11-11-11-11--7-7-7-7-7-7---------------9-9-9-9-9-9-|
D-11-11-11-11-11-11--7-7-7-7-7-7--7-7-7-7-7-7--9-9-9-9-9-9-|
A-9--9--9--9--9--9---5-5-5-5-5-5--7-7-7-7-7-7--7-7-7-7-7-7-|
E---------------------------------5-5-5-5-5-5--------------|
That's all I want...........

e----------------------------------------------------------|
B----------------------------------------------------------|
G-11-11-11-11-11-11--7-7-7-7-7-7---------------9-9-9-9-9-9-|
D-11-11-11-11-11-11--7-7-7-7-7-7--7-7-7-7-7-7--9-9-9-9-9-9-|
A-9--9--9--9--9--9---5-5-5-5-5-5--7-7-7-7-7-7--7-7-7-7-7-7-|
E---------------------------------5-5-5-5-5-5--------------|
That's all I want...........                YA YA YA YA YA


e------------------------------------------------------------|
B------------------------------------------------------------|
G-10-10-/-8-8-/-10-10-/-6-6-/-8-/-10-/-10-/-10-/6-6-/-13-/-8-|
D-10-10-/-8-8-/-10-10-/-6-6-/-8-/-10-/-10-/-10-/6-6-/-13-/-8-|
A-8--8-/--6-6-/-8--8-/--4-4-/-6-/-8-/--6-/--8-/-4-4-/-11-/-6-|
E------------------------------------------------------------|

VERSE 2:

e--------------------------------------------------------------------|
B--------------------------------------------------------------------|
G-|....PM.....|---------|....PM.....|----------6-6--/--13-/--8-------|
D-4-4-4-4-4-4-4---------4-4-4-4-4-4-4----------6-6--/--13-/--8-------|
A-4-4-4-4-4-4-4---------4-4-4-4-4-4-4----------4-4--/--11-/--6-------|
E-2-2-2-0-2-2-2---------2-2-2-0-2-2-2--------------------------------|
(How many times)  
[ Tab from: http://www.guitartabs.cc/tabs/o/offspring/all_i_want_tab_ver_4.html ]
e----------------------------------------------------------|
B----------------------------------------------------------|
G-|....PM.....|-------------------|....PM.....|------------|
D-4-4-4-4-4-4-4-------------------4-4-4-4-4-4-4------------|
A-4-4-4-4-4-4-4-------------------4-4-4-4-4-4-4------------|
E-2-2-2-0-2-2-2-------------------2-2-2-0-2-2-2------------|
(You've tried being cool)

e-----------------------|
B-----------------------|
G------6-6--/--13-/--8--|
D------6-6--/--13-/--8--|
A------4-4--/--11-/--6--|
E-----------------------|
(Now it's their turn to try)

CHORUS:

e---------------------|----------------------|
B---------------------|----------------------|
G-11-11-11-11-11-11---|-----7-7-7-7-7-7------|
D-11-11-11-11-11-11---|-----7-7-7-7-7-7------|
A-9--9--9--9--9--9----|-----5-5-5-5-5-5------|
E---------------------|----------------------|
(So back off your rules)

e-----------------------------|-------------------|
B-----------------------------|-------------------|
G-----------------------------|------9-9-9-9-9-9--|
D-------7-7-7-7-7-7-----------|------9-9-9-9-9-9--|
A-------7-7-7-7-7-7-----------|------7-7-7-7-7-7--|
E-------5-5-5-5-5-5-----------|-------------------|
(Cause I'm sick of not living)    

e---------------------|-----------------------|
B---------------------|-----------------------|
G-11-11-11-11-11-11---|------7-7-7-7-7-7------|
D-11-11-11-11-11-11---|------7-7-7-7-7-7------|
A-9--9--9--9--9--9----|------5-5-5-5-5-5------|
E---------------------|-----------------------|
  (Leave me alone) 

e-----------------------------------|
B-----------------------------------|
G-----------------------9-9-9-9-9-9-|
D-7-7-7-7-7-7-----------9-9-9-9-9-9-|
A-7-7-7-7-7-7-----------7-7-7-7-7-7-|
E-5-5-5-5-5-5-----------------------|
(I just don't want to be controlled)


e----------------------------------------------------------|
B----------------------------------------------------------|
G-11-11-11-11-11-11--7-7-7-7-7-7---------------9-9-9-9-9-9-|
D-11-11-11-11-11-11--7-7-7-7-7-7--7-7-7-7-7-7--9-9-9-9-9-9-|
A-9--9--9--9--9--9---5-5-5-5-5-5--7-7-7-7-7-7--7-7-7-7-7-7-|
E---------------------------------5-5-5-5-5-5--------------|
Thats all i want....................

e----------------------------------------------------------|
B----------------------------------------------------------|
G-11-11-11-11-11-11--7-7-7-7-7-7---------------9-9-9-9-9-9-|
D-11-11-11-11-11-11--7-7-7-7-7-7--7-7-7-7-7-7--9-9-9-9-9-9-|
A-9--9--9--9--9--9---5-5-5-5-5-5--7-7-7-7-7-7--7-7-7-7-7-7-|
E---------------------------------5-5-5-5-5-5--------------|
                                     .All i want............


Bridge:*

e----------------------------------|
B----------------------------------|
G-------7-7-9-------------11-11-9--|
D-------7-7-9-------------11-11-9--|
A-------5-5-7-------------9--9--7--|
E----------------------------------|
(I said it before) 

e--------------------------|------------------------------------|
B--------------------------|--|PM...............|...........PM|-|
G---------7-7-9------------|--7-7-7-7-7-7-7-7-7-6-6-6-6-6-6-6-6-|
D---------7-7-9------------|--7-7-7-7-7-7-7-7-7-6-6-6-6-6-6-6-6-|
A---------5-5-7------------|--5-5-5-5-5-5-5-5-5-4-4-4-4-4-4-4-4-|
E--------------------------|------------------------------------|
(If you could just listen)   

CHORUS:

e---------------------|----------------------|
B---------------------|----------------------|
G-11-11-11-11-11-11---|-----7-7-7-7-7-7------|
D-11-11-11-11-11-11---|-----7-7-7-7-7-7------|
A-9--9--9--9--9--9----|-----5-5-5-5-5-5------|
E---------------------|----------------------|
(So back off your rules)

e-----------------------------|-------------------|
B-----------------------------|-------------------|
G-----------------------------|------9-9-9-9-9-9--|
D-------7-7-7-7-7-7-----------|------9-9-9-9-9-9--|
A-------7-7-7-7-7-7-----------|------7-7-7-7-7-7--|
E-------5-5-5-5-5-5-----------|-------------------|
(Cause I'm sick of not living)   

e---------------------|-----------------------|
B---------------------|-----------------------|
G-11-11-11-11-11-11---|------7-7-7-7-7-7------|
D-11-11-11-11-11-11---|------7-7-7-7-7-7------|
A-9--9--9--9--9--9----|------5-5-5-5-5-5------|
E---------------------|-----------------------|
  (Leave me alone)    

e-----------------------------------|
B-----------------------------------|
G-----------------------9-9-9-9-9-9-|
D-7-7-7-7-7-7-----------9-9-9-9-9-9-|
A-7-7-7-7-7-7-----------7-7-7-7-7-7-|
E-5-5-5-5-5-5-----------------------|
(I just don't want to be controlled)


e----------------------------------------------------------|
B----------------------------------------------------------|
G-11-11-11-11-11-11--7-7-7-7-7-7---------------9-9-9-9-9-9-|
D-11-11-11-11-11-11--7-7-7-7-7-7--7-7-7-7-7-7--9-9-9-9-9-9-|
A-9--9--9--9--9--9---5-5-5-5-5-5--7-7-7-7-7-7--7-7-7-7-7-7-|
E---------------------------------5-5-5-5-5-5--------------|
That's all I want...........

e----------------------------------------------------------|
B----------------------------------------------------------|
G-11-11-11-11-11-11--7-7-7-7-7-7---------------9-9-9-9-9-9-|
D-11-11-11-11-11-11--7-7-7-7-7-7--7-7-7-7-7-7--9-9-9-9-9-9-|
A-9--9--9--9--9--9---5-5-5-5-5-5--7-7-7-7-7-7--7-7-7-7-7-7-|
E---------------------------------5-5-5-5-5-5--------------|
                                     ........YA YA YA YA YA


THATS IT,...any Q's mail me   daztaylor84@hotmail.com

that address is my MSN address too  :)

(*****-SHOUT GOING OUT TO ME MAIN MAN SIMON-******)
Comments