Offspring - All Along Chords & Tabs

 

All Along Chords & Tabs

Offspring Chords & Tabs

Version: 1 Type: Tab 0 ratings
1 star 2 stars 3 stars 4 stars 5 stars
comments

All Along Tab

@@@@@@@@@@@@@@@@@@@@@@@@@@@@@@
  Artist: The Offspring
  Album: Conspiracy of One
  Song: All Along
@@@@@@@@@@@@@@@@@@@@@@@@@@@@@@

OK, that's done, I'm all done with that now, phew, fast energetic song!
I LOVE IT! It's a little short though....
Fun and easy to play.
Strange, somehow I feel betrayed and broken.....

/Daniel - phantom@libertysurf.se


: = let ring
pm = palm mute

Intro: 2x  
E|---------------------------------------------------|
B|---------------------------------------------------|
G|--9-9-9-9-9-9-9-7-7-------------------------12-12--|
D|--9-9-9-9-9-9-9-7-7-5-5-7-7-7-7-7-7-7-10-10-12-12--|
A|--7-7-7-7-7-7-7-5-5-5-5-7-7-7-7-7-7-7-10-10-10-10--|
E|--------------------3-3-5-5-5-5-5-5-5--8--8--------|

[ Tab from: http://www.guitartabs.cc/tabs/o/offspring/all_along_tab.html ]
Verse:  * = 5 times  All palm muted except ()
E|--------------------------------------------|
B|--------------------------------------------|
G|--9*-7*----5-5------9*-7*----------(12-12)--|
D|--9*-7*-7*-5-5-5-5--9*-7*-7*-10-10-(12-12)--|
A|--7*-5*-7*-3-3-5-5--7*-5*-7*-10-10-(10-10)--|
E|--------5*-----3-3--------5*--8--8----------|


Chorus: 3x
E|---------------------------------------------------------|
B|---------------------------------------------------------|
G|--9-9-9-9-9-9-9-7-7-7-7-7-7-7---------------------12-12--|
D|--9-9-9-9-9-9-9-7-7-7-7-7-7-7-7-7-7-7-7-7-7-10-10-12-12--|
A|--7-7-7-7-7-7-7-5-5-5-5-5-5-5-7-7-7-7-7-7-7-10-10-10-10--|
E|------------------------------5-5-5-5-5-5-5--8--8--------|


Then play verse, and chorus 2x then


Interlude:
E|-----------------------------------------------------------|
B|-----------------------------------------------------------|
G|--9:--9:-----9-9--7-7-pmpm--5-5-pmpm--9-9--7-7--9---12-12--|
D|--9:--9:-----9-9--7-7--7-7--5-5--5-5--9-9--7-7--7---12-12--|
A|--7:--7:-7:--7-7--5-5--7-7--3-3--5-5--7-7--5-5------10-10--|
E|-------------pmpmpmpm--5-5-pmpm--3-3-pmpm-pmpm-------------|


Play chorus twice, and end


End:
E|--------------------|
B|--------------------|
G|---------12--12--9--|
D|--7--10--12--12--9--|
A|--7--10--10--10--7--|
E|--5---8-------------|
Comments