Officer Negative - The Fence Chords & Tabs

 

The Fence Chords & Tabs

Officer Negative Chords & Tabs

Version: 1 Type: Bass Tab 0 ratings
1 star 2 stars 3 stars 4 stars 5 stars
comments

The Fence Bass Tab

Song: The Fence
Artist:Officer Negative
Album: Dead to the world
Copyright:1998 Screaming Giant Records
Submitted By: Jon Paul (jonpaul11@msn.com)

intro:
3x
G:--------------------------------------
D:-----------------------3-5------------
A:-----3-3--5--5---5--------------------
E:--3-----------------------------------

1x
G:--------------------------------------
D:----------5-3--0----------------------
A:------3-------------5-0-1-------------
E:--3-----------------------------------

Repeat First Measure x3

Reapeat second measure x1

x4
G:---------------
D:--2------------
A:-----2--3------
E:----------3----

x4
G:---------------
D:--22-----------
A:-----22--33----
E:------------33-

then hit open E over and over again and hit harmonics on the 12th fret when it stops. right after the above measure

x3
G:-----------------------------------
D:--222---------------222------------
A:------222--33----------22--33333333
E:--------------3-22-----------------

[ Tab from: http://www.guitartabs.cc/tabs/o/officer_negative/the_fence_btab.html ]
x6
G:---------------
D:--22-----------
A:-----22--33----
E:------------33-


then do the harmonics thing again

x3
G:-----------------------------------
D:--222---------------222------------
A:------222--33----------22--33333333
E:--------------3-22-----------------

x6
G:---------------
D:--22-----------
A:-----22--33----
E:------------33-

do the harmonics thing again

x1
G:-----------------------------------
D:--222---------------222------------
A:------222--33----------22--33333333
E:--------------3-22-----------------

x1
G:------------------------------------
D:--222---------------222--------33-2-
A:------222--33----------22--33-------
E:--------------3-22------------------

x4
G:-----------------------------------
D:--222---------------222------------
A:------222--33----------22--33333333
E:--------------3-22-----------------

x4
G:----------------------
D:--222-----------------
A:-----22--333333-------

GO!

x6
G:---------------
D:--22-----------
A:-----22--33----
E:------------33-

harmonics thing


and then this long tab is done. 
















Comments