Off By One - On My Way Chords & Tabs

 

On My Way Chords & Tabs

Off By One Chords & Tabs

Version: 2 Type: Tab 0 ratings
1 star 2 stars 3 stars 4 stars 5 stars
comments

On My Way Tab

Intro:
E---------------------------------------------------
B---------------------------------------------------
G---------------------------------------------------
D-----10-8-7-----10-8-7-------8-7-8-10-10-8-7-8-7---
A-8-8-------------------8-5-5-----------------------
e------------8-8------------------------------------

Verse:
E------------------------------
B------------------------------
G-10-10---------7-7------------
D-10-10--10-10--7-7--8--10-----
A--8--8--10-10--5-5--8--10-----
e---------8--8-------6---8-----
[ Tab from: http://www.guitartabs.cc/tabs/o/off_by_one/on_my_way_tab_ver_2.html ]
Chorus:
E---------------------------
B---------------------------
G-10-10---------7-7---------
D-10-10--10-10--7-7--8-8----
A--8--8--10-10--5-5--8-8----
e---------8--8-------6-6----

Riff at :58
-----------------------------------------------------
-----------------------------------------------------
-----------------------------------------------------
---10-8-7---8-7----------------8-7-8-10-10-8-7-8-7---
-8--------------8-------8-10-------------------------
----------8-------10-10------6-----------------------

Bridge:
-----------------|-----------|-------------
-----------------|-----------|-------------
-10-10-10--------|-----------|-10-10-10----
-10-10-10--8-8-8-|--
Comments