Off By One - Cinderella Chords & Tabs

 

Cinderella Chords & Tabs

Off By One Chords & Tabs

Version: 1 Type: Tab 0 ratings
1 star 2 stars 3 stars 4 stars 5 stars
comments

Cinderella Tab

Intro:
E---------------------------------------------------
B---------------------------------------------------
G---------------------------------------------------
D------7-----6-----------------4-----------5--------
A-5-5---5-5-------7-----9-----------5-----------5---
e--------------5-5---5-5---3-3---3-3---3-3---3-3----
[ Tab from: http://www.guitartabs.cc/tabs/o/off_by_one/cinderella_tab.html ]
2nd guitar comes in with this:
E---------------------
B---------------------     
G-7-7-7---------------
D-7-7-7-7-7-7-5-5-5---
A-5-5-5-7-7-7-5-5-5---
e-------5-5-5-3-3-3---

Verse:
E-------------------
B-------------------
G-7-7---------------
D-7-7-5-5-7-7-5-7---
A-5-5-5-5-7-7-5-7---
e-----3-3-5-5-3-5---

Chorus:
E--------------------
B--------------------
G-7-7-7--------------
D-7-7-7-7-7-7-5-5-5--
A-5-5-5-7-7-7-5-5-5--
e-------5-5-5-3-3-3--

That's pretty much it. This is my first tab so I hope you enjoy it.
Comments