Of Sinking Ships - The Last Signal... Chords & Tabs

 

The Last Signal... Chords & Tabs

Of Sinking Ships Chords & Tabs

Version: 1 Type: Tab 1 rating
1 star 2 stars 3 stars 4 stars 5 stars
comments

The Last Signal... Tab

   
A
e|--------------------------5---5------------------------
b|--------------8-8-8-7-7-7---7---7----------------------
g|--7-7-7-4-4-4------------------------------------------
d|-------------------------------------------------------
a|-------------------------------------------------------
E|-------------------------------------------------------
B
e|---------------|--------12-------------------5---------
b|--7-5-3--8-7---|--7--------10---12-10-8-7------5-------
g|-------------7-|----7----------------------------------
d|---------------|---------------------------------------
a|-------1x------|---------------------------------------
E|---------------|---------------------------------------
C #1
e|-------------------------------|------------------3-2--
b|--7-5-/10-\3---7-5-3h5-5/7-7---|--7-5-3h5-5/7-7------3-
g|-------------------------------|-----------------------
d|-------------------------------|-----------------------
a|--------------2x---------------|-----------------------
E|-------------------------------|-----------------------
D
e|------------5------------------------------------------
b|----5h7-7h8--------------------------------------------
g|--7----------------------------------------------------
d|-------------------------------------------------------
a|-------------------------------------------------------
E|-------------------------------------------------------
C#2
e|----------------------------|-------------------------
b|--7-5-/10-\3--7-5-3h5-5/7-7-|-7-5-/10-\3--8-7-3/7-7/8-8
g|----------------------------|-------------------------
d|----------------------------|-------------------------
a|--------------2x------------|-------------------------
E|----------------------------|-------------------------

Song Structure
A
B
C#1
A
B
C#2
Guitar 1 plays B while guitar 2 plays D

This man is amazing and will always compose great music.
Also check another amazing band: The Red Sparrows

[ Tab from: http://www.guitartabs.cc/tabs/o/of_sinking_ships/the_last_signal_tab.html ]
Comments