Of Monsters And Men - Dirty Paws Chords & Tabs

 

Dirty Paws Chords & Tabs

Of Monsters And Men Chords & Tabs

Version: 1 Type: Bass Tab 0 ratings
1 star 2 stars 3 stars 4 stars 5 stars
comments

Dirty Paws Bass Tab

I noticed there wasn't any Bass tab for this song so I decided to
try make my own. I play this in my band so it should be right.
I have made my own variations and ways of playing this, so feel
free do play it however and make sure to listen to the song for 
chord changes and stuff. 
Bass comes in(0:54)
G|---------------------------------------------------------------|
D|---------------------------------------------------------------|
A|-3-3-3-3--/6-6-6-6-6-6-6-6--/11-11-11-11\----------------------|
E|---------------------------------------------------------------| x2
[ Tab from: http://www.guitartabs.cc/tabs/o/of_monsters_and_men/dirty_paws_btab.html ]
Verse part.
G|---------------------------------------------------------------|
D|---------------------------------------------------------------|
A|--3-3-3-3-3----6-----8--9---10-10-10-10--h11\------------------|
E|-------------6-------------------------------------------------| x4

Chorus part.
G|---------------------------------------------------------------|
D|-------------------6-------------------------------------------|
A|-3---5--6-------6-----3----------------------------------------|
E|-------------------------6-------------------------------------| x2

So those are basically the main tabs. 

| /  slide up
| \  slide down
Comments