Of A Revolution - Crazy Game Of Poker Chords & Tabs

 

Crazy Game Of Poker Chords & Tabs

Of A Revolution Chords & Tabs

Version: 3 Type: Tab 1 rating
1 star 2 stars 3 stars 4 stars 5 stars
comments

Crazy Game Of Poker Tab

Artist: OAR (Of A Revolution)
Song: Crazy Game of Poker
Album: The Wanderer

Intro goes a little something like this, mess around with it
though cause it ain't perfect.

E--10-10-10---8-8---5----------------------------------------------
B---8--8--8---8-8---5------------------------------------
G---------------------7^8r7-5-----5----5-7-7^8-7^8-5h7-5------
D-----------------------------5h7---5h7-------------------------
A---------------------------------------------------------
E---------------------------------------------------------

E----------------------------------------
B----------------------------------------
G------------5h7^8-5-----5-----5-7-7/10-10-10-8--
D--------5h7---------5h7---5-7-------------------
A-----5h7-----------------------------------
E-5h8--------------------------------------
[ Tab from: http://www.guitartabs.cc/tabs/o/of_a_revolution/crazy_game_of_poker_tab_ver_3.html ]
E------------------------------0-0-0-1----------------
B------------------------------1-1-1-1---------------
G------------------------------2-2-2-2--8/10-10-8-8/10-10-8---
D-------5h7^8-5-----5-----5-7--2-2-2-3-------------------------
A----5h7--------5h7---5-7------0-0-0-3-------------------------
E-5h8--------------------------0-0-0-1--------------------
                             ~~~~~
E-----------------10-10-10-8------------------------------------
B------------10-8--------------------------------------------
G--8/10-10-8-------------------------------------------------------
D----------------------------------------------------------
A------------------------------------------------------------
E-----------------------------------------------------------
                                    Oh my!!!!!!!

Then the chords go C G Am G.  I wish i could tell you the words, but
they are beyond me, i just try to make similar sounds as him when i'm
singing.
Then there is a little interlude part inbetween verses and chorus and 
stuff like that, it goes:

E--0-0----------------------------------------
B--0h1------------------------------------------
G--0h2-------------------------------------------
D--0h2 strum Am for a little and repeat that 4 times ending sharp on 
A--0-0   the Am on the last time
E--0-0--------------------------------------------

Then you wanna try and give it a little reggae/ska feel when they
break it down again and do the solo which i have no idea how to play.
It sticks to this upstrum slow ska deal for pretty much the rest of 
the song, so just cruise with it.  Have fun.     Nick


juxto@hotmail.com
Comments