Of A Revolution - Crazy Game Of Poker Chords & Tabs

 

Crazy Game Of Poker Chords & Tabs

Of A Revolution Chords & Tabs

Version: 2 Type: Tab 0 ratings
1 star 2 stars 3 stars 4 stars 5 stars
comments

Crazy Game Of Poker Tab

#----------------------------------PLEASE NOTE--------------------------------#
#This file is the author's own work and represents their interpretation of the#
#song. You may only use this file for private study, scholarship, or research.#
#-----------------------------------------------------------------------------#
#-- File created with Instab - http://www.pconline.com/~smcarey/instab.html --#
#-----------------------------------------------------------------------------#

Author/Artist: Of A Revolution
Title: Crazy Game Of Poker
Transcribed by: Kevin Weber
Email: phastball@mediaone.net

Everything is pretty much right, just fool around with it.  
For some of the chorus there is a little ska upstroke thing goin on.  
Just work with it.  Its a great song, by a great band.  Enjoy it! 
Email any comments to me.  phastball@mediaone.net
Go to www.ofarevolution.com for lyrics and stuff.
[ Tab from: http://www.guitartabs.cc/tabs/o/of_a_revolution/crazy_game_of_poker_tab_ver_2.html ]
-1010/11-88-55----------------------------------------------------------------
--8-8--8-88-55--7b-5---5---575-7b-5h7-5---------------------------------------
--------------------5-7-5-7-------------------------5-7b-575------------------
------------------------------------------------5-7---------------------------
--------------------------------------------5-7-------------------------------
----------------------------------------5-8-----------------------------------
                                                                              

-------------------------------------------0---1----3---------10-8------------
-------------------------------------------0h1-1--1------8/10-----------------
-9-1010-12/14-12-10-9-------------7-9b-797-0h2--2-0---------------------------
------------------------------7-9----------0h2--3-2---------------------------
--------------------------5-7--------------0----3-3-2-------------------------
----------------------5-8------------------0----1---3-------------------------
                                          Strum a little            OH MY!!!  

----3-----1--------0----0----0------------------------------------------------
-1-----1--1--------0h11-0h11-0h11-1-------------------------------------------
-0-----2--2--------0h22-0h22-0h22-2-------------------------------------------
-2-----2--3--------0h22-0h22-0h22-2-------------------------------------------
-3--2-----3--------0----0----0------------------------------------------------
----3-----1--------0----0----0------------------------------------------------
 C  G  Am F     Little riff now and then   Just play around with it! Enjoy!   

Comments